PrimaNota.ru - самый крупный в мире бесплатный архив песенных текстов, аккордов, табулатур и нот


Misc Unsigned Bands - The Broken Hearts Academy - Acoustic Song - таба

Регистрация Запомнить меня
Войти через:  Facebook Google Twitter Vk Yandex Mail.ru

Misc Unsigned Bands - The Broken Hearts Academy - Acoustic Song - таба

Печатать
Просмотров: 52
Artist: The Broken Hearts Academy
Title: Acoustic Song
Tabbed By: Flipp, sunpoison_n_skincacner@yahoo.com
Corrections email me

This was a request from my ex..I tried playing the song a couple of times and it 
turned out to be really fun...
Its not very hard, just listen for the strumming..enjoy


Tune 1/2 step down

             Verse

Eb|--0----0----0----0------0--------|
Bb|--0----0----0------0----0--------|
Gb|--4----4----4-----------4--------| x2
Db|--2----4----2-----------4--------|
Ab|--4----2----0-----------2--------|
Eb|--x----x----x-----------x--------|

I'm sick of you acting like this...

              Strum

Eb|--0----0----0----0---------------|
Bb|--0----0----0----0---------------|
Gb|--4----4----4----4---------------| x2
Db|--2----4----2----4---------------|
Ab|--4----2----0----2---------------|
Eb|--x----x----x----x---------------|

Well I've heard of phases... 

             chorus

Eb|--0----0----0----0---------------|
Bb|--0----0----0----0---------------|
Gb|--1----2----6----4---------------| x2
Db|--2----2----6----4---------------|
Ab|--2----0----4----2---------------|
Eb|--0----0----x----x---------------|

I have every right to...

             verse

Eb|--0----0----0----0------0--------|
Bb|--0----0----0------0----0--------|
Gb|--4----4----4-----------4--------|
Db|--2----4----2-----------4--------|
Ab|--4----2----0-----------2--------|
Eb|--x----x----x-----------x--------|

My best friend is what I'm losing...

Eb|--0----0----0----0---------------|
Bb|--0----0----0----0---------------|
Gb|--4----4----4----4---------------|
Db|--2----4----2----4---------------|
Ab|--4----2----0----2---------------|
Eb|--x----x----x----x---------------|

And everything that was never thought of...
             
               strum

Eb|--0----0----0----0---------------|
Bb|--0----0----0----0---------------|
Gb|--4----4----4----4---------------| x2
Db|--2----4----2----4---------------|
Ab|--4----2----0----2---------------|
Eb|--x----x----x----x---------------|

And everybody they say get another girl...

               chorus

Eb|--0----0----0----0---------------|
Bb|--0----0----0----0---------------|
Gb|--1----2----6----4---------------| x3
Db|--2----2----6----4---------------|
Ab|--2----0----4----2---------------|
Eb|--0----0----x----x---------------|

I have every right to...

               verse
                                        
               strum

Eb|--0----0----0--------------------|
Bb|--0----0----0--------------------|
Gb|--6----4----4--------------------|
Db|--6----4----2--------------------|
Ab|--4----2----0--------------------|
Eb|--x----x----x--------------------|

You know the backdoor to my heart

Eb|--0----0----0----0---------------|
Bb|--0----0----0----0---------------|
Gb|--6----4----4----4---------------| x2
Db|--6----4----2----4---------------|
Ab|--4----2----0----2---------------|
Eb|--x----x----x----x---------------|

Well, this is how to lose a best friend...

Eb|--0----0----0----0----0----0-----|
Bb|--0----0----0----0----0----0-----|
Gb|--6----4----4----4----4----4-----| x2
Db|--6----4----2----4----2----4-----|
Ab|--4----2----0----2----0----2-----|
Eb|--x----x----x----x----x----x-----|

I guess we're old now...

Eb|--0----0----0----0---------------|
Bb|--0----0----0----0---------------|
Gb|--6----4----4----4---------------| x2
Db|--6----4----2----4---------------|
Ab|--4----2----0----2---------------|
Eb|--x----x----x----x---------------|

And I know your spark for me is no more...

               chorus

Eb|--0----0----0----0---------------|
Bb|--0----0----0----0---------------|
Gb|--1----2----6----4---------------| x5
Db|--2----2----6----4---------------|
Ab|--2----0----4----2---------------|
Eb|--0----0----x----x---------------|

I have every right to...

ends on e major     
Добавлено: 04.06.2013
Другие материалы по этой песне:
  • Аккорды и текст

Страница создана 04.06.2013
http://primanota.ru/misc-unsigned-bands/the-broken-hearts-academy-acoustic-song-chords.htm
Привет, Гость.
Предлагаем пройти революционный курс по гитаре.
Подарок от PrimaNota.Ru, забирай!