PrimaNota.ru - самый крупный в мире бесплатный архив песенных текстов, аккордов, табулатур и нот


Misc Unsigned Bands - The Animal In Me - I Created A Monster - таба

Регистрация Запомнить меня
Войти через:  Facebook Google Twitter Vk Yandex Mail.ru

Misc Unsigned Bands - The Animal In Me - I Created A Monster - таба

Печатать
Просмотров: 57
The Animal In Me - I Created A Monster 
Album: Instincts EP
Year: 2012

Tuning: Drop D
All parts and all guitars.


Tabbed by ADVER




Intro
Both Guitars
e|-------------------------------------------------|
B|-------------------------------------------------|
G|-------------------------------------------------|
D|-000000-00-00000-00000-000000-00-00000-----------|
A|-000000-00-00000-00000-000000-00-00000-----------|
D|-000000-00-00000-00000-000000-00-00000-00-8p00-7-|
   xxxxxx xx xxxxx       xxxxxx xx xxxxx xx   xx    

Intro cont.
e|-------------------------------------------------|
B|-------------------------------------------------|
G|-------------------------------------------------|
D|-000000-00-00000-00000-000000-00-00000-000-------|
A|-000000-00-00000-00000-000000-00-00000-000-------|
D|-000000-00-00000-00000-000000-00-00000-000-5-7-8-|
   xxxxxx xx xxxxx       xxxxxx xx xxxxx xxx x x x


Verse
Guitar 1
e|-555------------------555-------------8h101010-|
B|-----333-666-555----------333-666-555----------|
G|-----------------2222--------------------------|
D|-----------------------------------------------|
A|-----------------------------------------------|
D|-----------------------------------------------|

Guitar 1 cont.
e|--------------888888-8h10-------555--------0--0-----|
B|-101010101010-------------10\-------666------6--6---|
G|----------------------------------------777----7--7-|
D|----------------------------------------------------|
A|----------------------------------------------------|
D|----------------------------------------------------|


Guitar 2
e|-----------------------------------------------|
B|-----------------------------------------------|
G|-----------------------------------------------|
D|-00000~00~0000~8888--00000~00~0000~------------|
A|-00000~00~0000~8888--00000~00~0000~------------|
D|-00000~00~0000~8888--00000~00~0000~00-10-00-10-|
   xxxxx xx xxxx xxxx  xxxxx xx xxxx xx    xx

Guitar 2 cont.
e|---------------------------|
B|---------------------------|
G|-------555555-77777--------|
D|-88888-555555-77777-333333-|
A|-88888-333333-55555-333333-|
D|-88888--------------333333-|

Verse cont.

Guitar 1
e|-555------------------555-------------8h101010-|
B|-----333-666-555----------333-666-555----------|
G|-----------------2222--------------------------|
D|-----------------------------------------------|
A|-----------------------------------------------|
D|-----------------------------------------------|
   xxx xxx xxx xxx xxxx xxx xxx xxx xxx

Guitar 1 cont.
e|--------------888888-8h10-------555--------0--0------0~-|
B|-101010101010-------------10\-------666------6--6----6~-|
G|----------------------------------------777----7--7--7~-|
D|--------------------------------------------------------|
A|--------------------------------------------------------|
D|--------------------------------------------------------|


Guitar 2
e|-----------------------------------------------|
B|-----------------------------------------------|
G|-----------------------------------------------|
D|-00000~00~0000~8888--00000~00~0000~------------|
A|-00000~00~0000~8888--00000~00~0000~------------|
D|-00000~00~0000~8888--00000~00~0000~00-10-00-10-|
   xxxxx xx xxxx xxxx  xxxxx xx xxxx xx    xx

Guitar 2 cont.
e|------------------------------|
B|------------------------------|
G|-------555555-77777-----------|
D|-88888-555555-77777-333333-0~-|
A|-88888-333333-55555-333333-0~-|
D|-88888--------------333333-0~-|


00:50
Guitar 2
e|-----------------------------------------------------------|
B|-----------------------------------------------------------|
G|-----------------------------------------------------------|
D|-----------------------------------------------------------|
A|-----------------------------------------------------------|
D|-00-0-00-0-00-0-00-0-00-8-00-8--00-0-00-0-00-0-00-0-0000-8-|
   xx   xx   xx   xx   xx   xx    xx   xx   xx   xx   xxxx


Chorus
Guitar 1
e|---------------------------------------------------------|
B|---------------------------------------------------------|
G|--------------5555------------------------5555-----------|
D|-00000-2-3333-5555-55555-777-00000-2-3333-5555-55555-333-|
A|-00000-2-3333-3333-55555-777-00000-2-3333-3333-55555-333-|
D|-00000-2-3333------55555-777-00000-2-3333------55555-333-|


Guitar 2 (Strum these)
e|-----------------------------------------|
B|-13131313--8-101010---8-8-8---111111--10-|
G|-10101010-10-101010--101010---101010--10-|
D|-----------------------------------------|
A|-----------------------------------------|
D|-----------------------------------------|


Chorus cont.
Guitar 1 (Figure out the timing)
e|-13h17p13---13--13--13--13-------------------------13-12-|
B|----------17--17--15--15--15--10h11p10----10--10---------|
G|----------------------------------------12--12--12-------|
D|---------------------------------------------------------|
A|---------------------------------------------------------|
D|---------------------------------------------------------|

Guitar 1 cont.
e|-13h17p13---13--13--13--13-------------------------13-12b-|
B|----------17--17--15--15--15--10h11p10----10--10----------|
G|----------------------------------------12--12--12--------|
D|----------------------------------------------------------|
A|----------------------------------------------------------|
D|----------------------------------------------------------|


Guitar 2
e|----------------------------------|
B|----------------------------------|
G|----------------------------------|
D|-0000-00000-3333-5555-55555-55-33-|
A|-0000-00000-3333-3333-55555-55-33-|
D|-0000-00000-3333------55555-55-33-|
   xxxx xxxxx xxxx xxxx xxxxx xx xx


1:25
Intro
e|-------------------------------------------------|
B|-------------------------------------------------|
G|-------------------------------------------------|
D|-000000-00-00000-00000-000000-00-00000-----------|
A|-000000-00-00000-00000-000000-00-00000-----------|
D|-000000-00-00000-00000-000000-00-00000-00-8p00-7-|
   xxxxxx xx xxxxx       xxxxxx xx xxxxx xx   xx    


Intro cont.
e|-------------------------------------------------|
B|-------------------------------------------------|
G|-------------------------------------------------|
D|-000000-00-00000-00000-000000-00-00000-000-------|
A|-000000-00-00000-00000-000000-00-00000-000-------|
D|-000000-00-00000-00000-000000-00-00000-000-5-7-8-|
   xxxxxx xx xxxxx       xxxxxx xx xxxxx xxx x x x


1:38
Play Verse


2:04
Breakdown
e|-----------------------------------|
B|-----------------------------------|
G|-----------------------------------|
D|-0000-0-000-0-000-0-000------------|
A|-0000-0-000-0-000-0-000-44-44-4-44-|
D|-0000-0-000-0-000-0-000-00-00-0-00-|
   xxxx x xxx x xxx x xxx xx xx x xx 

Breakdown cont.
e|---------------------------------------------------|
B|---------------------------------------------------|
G|---------------------------------------------------|
D|-0000-0-000-0-000-0-000-------------5-5-5-5--77777-|
A|-0000-0-000-0-000-0-000-44-44-4-44--5-5-5-5--77777-|
D|-0000-0-000-0-000-0-000-00-00-0-00--5-5-5-5--77777-|
   xxxx x xxx x xxx x xxx xx xx x xx  x x x x  xxxxx


2:17
Play Chorus


Pre-Breakdown Interlude
Guitar 1
e|-------------------------------------------------------|
B|-------------------------------------------------------|
G|-------------------------------------------------------|
D|-0~-------------------------------------------------0~-|
A|-0~-------------------------------------------------0~-|
D|-0~-------------------------------------------------0~-|



Guitar2
e|-------------------------------------------------------------------------------|
B|-------------------------------------------------------------------------------|
G|-------------------------------------------------------------------------------|
D|-------------------------------------------------------------------------------|
A|---------------------------------------------1-0-------------------------------|
D|-00-00-0-00~-0-000-000-00--00-00-0-00~-0-000-----3-2--00-00-0-00~-0-000-000-00-|
   xx xx x xx  x xxx xxx xx  xx xx x xx  x xxx          xx xx x xx  x xxx xxx xx

Pre-Breakdown Interlude cont.
Both Guitars
e|---------------------------|
B|---------------------------|
G|---------------------------|
D|-000-000-0-0-0--0-0000-0-0-|
A|-000-000-0-0-0--0-0000-0-0-|
D|-000-000-0-0-0--0-0000-0-0-|
   xxx xxx x x x  x xxxx x x

Breakdown
Guitar 1
e|---------------------------------------------------------|
B|---------------------------------------------------------|
G|-------------101010------------------101010--------------|
D|-00-00-0-0-0-101010-0-0-0000-0-00000-101010-0-000-0------|
A|-00-00-0-0-0--------0-0-0000-0-00000--------0-000--4-1-0-|
D|-00-00-0-0-0--------0-0-0000-0-00000--------0-000--------|
   xx xx x x x        x x xxxx x xxxxx        x xxx

Guitar 1 cont.
e|---------------------------------------------------------|
B|---------------------------------------------------------|
G|-------------101010------------------101010--------------|
D|-00-00-0-0-0-101010-0-0-0000-0-00000-101010-0-000-0------|
A|-00-00-0-0-0--------0-0-0000-0-00000--------0-000--4-1-4-|
D|-00-00-0-0-0--------0-0-0000-0-00000--------0-000--------|
   xx xx x x x        x x xxxx x xxxxx        x xxx

Guitar 2 (x2)
e|---------------------------------------------------------|
B|--------------666--------------------666-----------------|
G|--------------777--------------------777-----------------|
D|-00-00-0-0-0--------0-0-0000-0-00000--------0-000--------|
A|-00-00-0-0-0--------0-0-0000-0-00000--------0-000-1-0----|
D|-00-00-0-0-0--------0-0-0000-0-00000--------0-000----3-2-|
   xx xx x x x        x x xxxx x xxxxx        x xxx

Breakdown cont.
Guitar 1
e|----------------------------------------------------------------|
B|----------------------------------------------------------------|
G|----------------------------------------------------------------|
D|-000-0-0-0-000-0-0-0--------------000-0-0-0-000-0-0-0-----0-----|
A|-000-0-0-0-000-0-0-0--------------000-0-0-0-000-0-0-0-------4-0-|
D|-000-0-0-0-000-0-0-0-0-000-0-000--000-0-0-0-000-0-0-0-1-0-------|
   xxx x x x xxx x x x              xxx x x x xxx x x x


Guitar 1 cont.
e|-----------------------------------------------------------|
B|-----------------------------------------------------------|
G|-----------------------------------------------------------|
D|-000-0-0-0-000-0-0-0--------------00-00-0-00-0-0--0-----0~-|
A|-000-0-0-0-000-0-0-0--------------00-00-0-00-0-0----4-0-0~-|
D|-000-0-0-0-000-0-0-0-0-000-0-000--00-00-0-00-0-0--------0~-|
   xxx x x x xxx x x x              xx xx x xx x x


Guitar 2
e|---------------------------------------------------------------|
B|---------------------------------------------------------------|
G|---------------------------------------------------------------|
D|-000-0-0-0-000-0-0-0--------------000-0-0-0-000-0-0-0----------|
A|-000-0-0-0-000-0-0-0--------------000-0-0-0-000-0-0-0-----1-0--|
D|-000-0-0-0-000-0-0-0-0-000-0-000--000-0-0-0-000-0-0-0-1-0----3-|
   xxx x x x xxx x x x              xxx x x x xxx x x x

Guitar 2 cont.
e|-----------------------------------------------------------|
B|-----------------------------------------------------------|
G|-----------------------------------------------------------|
D|-000-0-0-0-000-0-0-0--------------00-00-0-00-0-0--------0~-|
A|-000-0-0-0-000-0-0-0--------------00-00-0-00-0-0---1-0--0~-|
D|-000-0-0-0-000-0-0-0-0-000-0-000--00-00-0-00-0-0------3-0~-|
   xxx x x x xxx x x x              xx xx x xx x x


3:29
Chorus (Altered)
Guitar 1
e|---------------------------------------------------------|
B|---------------------------------------------------------|
G|--------------5555------------------------5555-----------|
D|-00000-2-3333-5555-55555-777-00000-2-3333-5555-55555-333-|
A|-00000-2-3333-3333-55555-777-00000-2-3333-3333-55555-333-|
D|-00000-2-3333------55555-777-00000-2-3333------55555-333-|


Guitar 2 (Strum these)
e|-----------------------------------------|
B|-13131313--8-101010---8-8-8---111111--10-|
G|-10101010-10-101010--101010---101010--10-|
D|-----------------------------------------|
A|-----------------------------------------|
D|-----------------------------------------|


Chorus (Altered) cont.
Guitar 1 (Figure out the timing)
e|-13h17p13---13--13--13--13-------------------------13-12-|
B|----------17--17--15--15--15--10h11p10----10--10---------|
G|----------------------------------------12--12--12-------|
D|---------------------------------------------------------|
A|---------------------------------------------------------|
D|---------------------------------------------------------|

Guitar 1 cont.
e|-13h17p13---13--13--13--13-------------------------13-12b-|
B|----------17--17--15--15--15--10h11p10----10--10----------|
G|----------------------------------------12--12--12--------|
D|----------------------------------------------------------|
A|----------------------------------------------------------|
D|----------------------------------------------------------|


Guitar 2
e|---------------------------------|
B|---------------------------------|
G|---------------------------------|
D|-000000000-3333-5555-5555555-333-|
A|-000000000-3333-3333-5555555-333-|
D|-000000000-3333------5555555-333-|
   

Outro
Both Guitars
e|-------------------------------------------------------|
B|-------------------------------------------------------|
G|-------------------------------------------------------|
D|-00-000-0-000-0-000-0-000------------------------------|
A|-00-000-0-000-0-000-0-000-44-444-4-444-----------------|
D|-00-000-0-000-0-000-0-000-00-000-0-000-888-777-555-333-|
   xx xxx x xxx x xxx x xxx xx xxx x xxx       

Both Guitars cont.
e|-------------------------------------------------------|
B|-------------------------------------------------------|
G|-------------------------------------------------------|
D|-00-000-0-000-0-000-0-000------------------------------|
A|-00-000-0-000-0-000-0-000-44-444-4-444-----------------|
D|-00-000-0-000-0-000-0-000-00-000-0-000-888-777-555-333-|
   xx xxx x xxx x xxx x xxx xx xxx x xxx xxx xxx xxx xxx
Добавлено: 14.10.2013
Другие материалы по этой песне:
  • Аккорды и текст

Страница создана 14.10.2013
http://primanota.ru/misc-unsigned-bands/the-animal-in-me-i-created-a-monster-chords.htm
Привет, Гость.
Предлагаем пройти революционный курс по гитаре.
Подарок от PrimaNota.Ru, забирай!