PrimaNota.ru - самый крупный в мире бесплатный архив песенных текстов, аккордов, табулатур и нот


Misc Unsigned Bands - Terms And Conditions - Fighting For Survival - таба, видео

Регистрация Запомнить меня
Войти через:  Facebook Google Twitter Vk Yandex Mail.ru

Misc Unsigned Bands - Terms And Conditions - Fighting For Survival - таба, видео

Печатать
Просмотров: 48
-------------------------------------------------------------------------------
                             Fighting for Survival - TERMs and Conditions
-------------------------------------------------------------------------------
Tabbed by: ShaunLennon
E-mail: shaunlennon@hotmail.com

Tuning: Standard

Order: RIFF
       VERSE 1
       VERSE 2
       CHORUS
       RIFF
       VERSE 1
       VERSE 2
       CHORUS
       BRIDGE
       CHORUS

RIFF

e|---------------------------------------------------------------------------|
B|---------------------------------------------------------------------------|
G|---------------------------------------------------------------------------|
D|-99999999\-44444444/-6666666666666666/-[x2]--------------------------------|
A|---------------------------------------------------------------------------|
E|---------------------------------------------------------------------------|

VERSE 1

e|---------------------------------------------------------------------------|
B|---------------------------------------------------------------------------|
G|---------------------------------------------------------------------------|
D|-99999999\-44444444/-6666666666666666/-[x4]--------------------------------|
A|---------------------------------------------------------------------------|
E|---------------------------------------------------------------------------|

VERSE 2

e|---------------------------------------------------------------------------|
B|-11-------6-------4-------11-----------------------------------------------|
G|-11-(x8)--6-(x8)--4-(x8)--11-(x8)-[x4]-------------------------------------|
D|-9--------4-------2-------9------------------------------------------------|
A|---------------------------------------------------------------------------|
E|---------------------------------------------------------------------------|

CHORUS

e|---------------------------------------------------------------------------|
B|---------------------------------------------------------------------------|
G|-4---------------1-------4-------------------------------------------------|
D|-4-(x8)--4-(x8)--2-(x8)--4-(x8)--------------------------------------------|
A|-2-------4-------2-------2-------------------------------------------------|
E|---------2-----------------------------------------------------------------|

e|---------------------------------------------------------------------------|
B|---------------------------------------------------------------------------|
G|-4--------------1------6---------------------------------------------------|
D|-4-(x8)-4-(x8)--2-(x8)-6-(x8)----------------------------------------------|
A|-2------4-------2------4---------------------------------------------------|
E|--------2------------------------------------------------------------------|

e|---------------------------------------------------------------------------|
B|---------------------------------------------------------------------------|
G|-4-------------1-----------------------------------------------------------|
D|-4-(x8)-4-(x8)-2-(x16)-[x2]------------------------------------------------|
A|-2------4------2-----------------------------------------------------------|
E|--------2------------------------------------------------------------------|

BRIDGE

e|---------------------------------------------------------------------------|
B|---------------------------------------------------------------------------|
G|-6-(x8)--8-(x8)--10-(x8)--8-(x8)--6-(x8)--8-(x8)--10-(x8)--11-(x16)--------|
D|-6-------8-------10-------8-------6-------8-------10-------11--------------|
A|----------------------------------4-------6-------8--------9---------------|
E|---------------------------------------------------------------------------|

END WITH

e|---------------------------------------------------------------------------|
B|---------------------------------------------------------------------------|
G|-4---let ring--------------------------------------------------------------|
D|-4-------------------------------------------------------------------------|
A|-2-------------------------------------------------------------------------|
E|---------------------------------------------------------------------------|


************************************

| /   slide up
| \   slide down
| h   hammer-on
| p   pull-off
| ~   vibrato
| +   harmonic
| x   Mute note
| b   Bend
| pb  Pre-bend
| br  Bend release
| pbr Pre-bend release
| brb Bend release bend

************************************
Добавлено: 11.10.2013
Другие материалы по этой песне:
  • Аккорды и текст

Страница создана 11.10.2013
http://primanota.ru/misc-unsigned-bands/terms-and-conditions-fighting-for-survival-chords.htm
Привет, Гость.
Предлагаем пройти революционный курс по гитаре.
Подарок от PrimaNota.Ru, забирай!