PrimaNota.ru - самый крупный в мире бесплатный архив песенных текстов, аккордов, табулатур и нот


Misc Unsigned Bands - Tanya Chinita - A Song For Rafael - таба

Регистрация Запомнить меня
Войти через:  Facebook Google Twitter Vk Yandex Mail.ru

Misc Unsigned Bands - Tanya Chinita - A Song For Rafael - таба

Печатать
Просмотров: 51
Уроки эстрадного вокала в Санкт-Петербурге
A Song for Rafael by Tanya Chinita

Tabbed by: Francis "Anses-Anseng" Fajilan
Tuning: Standard

Kayo na bahala sa rhythm habang nagpi-picking kayo mga pre. Madali lang naman sya sundan sa kanta


Legend:
/ - slide
^ - pull-off


Intro:

e--------------------------------------------------------------------2------|
B--4-5-5/7----7-0----9-7---9-7-------7--5/7-5/4-2-0-0(hammer-on)2--------2--|
G------------------------------------8---------------------------------3-3--|
D------------------------------9---8----------------------------------------|
A----------7----7-7------6-------6------------------------------------------|
E------------------------------------------------------------------2-----2--|

Verse 1:

          B              G#m              E              F
e-----------------------------------------------------------------|
B------4-4-----4-------4-4-----4-------0-0-----0-------2-2--------|
G------4-4-----4-------4-4-----4-------1-1-----1-------3-3--------|
D----4-4-----4-4-------6-------6-------2-------2-------4----------|
A--2-------2---------6-------6-------2-------2-------4-------4----|
E------------------4-------4-------0-------0-------2-------2---2--|

          B              G#m              E              F#
e-----------------------------------------------------------------|
B------4-4-----4-------4-4-----4-------0-0-----0-------2-2-----2--|
G------4-4-----4-------4-4-----4-------1-1-----1-------3-3-----3--|
D----4-4-----4-4-------6-------6-------2-------2-------4-------4--|
A--2-------2---------6-------6-------2-------2-------4-------4----|
E------------------4-------4-------0-------0-------2-------2------|

Refrain:

        C#m              G#m             C#m             F#
e-----------------------------------------------------------------|
B------5-5-----5-------4-4-----4-------5-5-----5-------2-2-----2--|
G------6-6-----6-------4-4-----4-------6-6-----6-------3-3-----3--|
D----6-6-----6-6-------6-------6-----6-6-----6-6-------4-------4--|
A--4-------4---------6-------6-----4-------4---------4-------4----|
E------------------4-------4-----------------------2-------2------|

Chorus:

        D#m              G#m             C#m             F#
e-----------------------------------------------------------------|
B------7-7-----7-------4-4-----4-------5-5-----5-------2-2-----2--|
G------8-8-----8-------4-4-----4-------6-6-----6-------3-3-----3--| (2x)
D----8-8-----8-8-------6-------6-----6-6-----6-6-------4-------4--|
A--6-------6---------6-------6-----4-------4---------4-------4----|
E------------------4-------4-----------------------2-------2------|

then B (strumming)

Verse 2 (same chords lang sa verse 1)

Repeat Refrain (same chords)

Guitar 2 Riff ng Refrain

e----------9-7--|
B--4-5-5/7------|
G---------------|
D---------------|
A---------------|
E---------------|

e----------9-7---9-7-7--|
B--4-5-5/7-----7--------|
G-----------------------|
D-----------------------|
A-----------------------|
E-----------------------|

Repeat Chorus (same  chords)

Instrumental:

e----------------------------------|
B--4/5-5-0------7-5---7-5-------5--|
G-------------------------------6--|
D-------------6-----------7---6----|
A-----------4-------4-------4------|
E----------------------------------|

e----------4-6-4-6/8-6-8^6-8/10-10-10/8-6-8-6-8-8/10-10-10-10/8-6--|
B----4-5-7---------------------------------------------------------|
G--6---------------------------------------------------------------|
D------------------------------------------------------------------|
A------------------------------------------------------------------|
E------------------------------------------------------------------|

e--10^8-8/10-10-10/8-6--    e----2---------|
B-----------------------    B--2-----2--2--|
G-----------------------    G------3----3--|
D-----------------------    D-----------4--|
A-----------------------    A-----------4--|
E-----------------------    E--------------|

Repeat Refrain

Repeat Chorus and end with B

10/08/13
Добавлено: 22.10.2013
Другие материалы по этой песне:
  • Аккорды и текст

Страница создана 22.10.2013
http://primanota.ru/misc-unsigned-bands/tanya-chinita-a-song-for-rafael-chords.htm
Привет, Гость.
Предлагаем пройти революционный курс по гитаре.
Подарок от PrimaNota.Ru, забирай!