PrimaNota.ru - самый крупный в мире бесплатный архив песенных текстов, аккордов, табулатур и нот


Misc Unsigned Bands - Syith - Temptation Drive - таба, видео

Регистрация Запомнить меня
Войти через:  Facebook Google Twitter Vk Yandex Mail.ru

Misc Unsigned Bands - Syith - Temptation Drive - таба, видео

Печатать
Просмотров: 94
-------------------------------------------------------------------------------
                             Temptation Drive - SYITH
-------------------------------------------------------------------------------
Tabbed by: ThorChicken
E-mail: privateawesome00@gmail.com

Tuning: Standard
Key: D

Hello! SYITH has been really busy! We've been writing songs for a while now, and are working on our second 
album. Take a look: https://syithrockon3.wordpress.com/

Verse 1:

I need to draw you close to me,

feel your warmth in my heart again.

If I could, I would bring you back to me,

but you're forbidden territory.

Pre-Chorus:

I don't know why, I can't see how,

you'd bring this around.

Oh, hey, but you would.

Chorus:

I'd bring you back again,

I'd bring you back-I'd bring you

Ba-a-ck

Ba-a-ck.

I'd bring you back again,

I'd bring you back-I'd bring you

Ba-a-ck

Ba-a-ck, hey yeah!

Verse 2:

.45s, open knives,

I'd brave them just to brush your lips.

The seeds of doubt, spread through this town,

flowers of wrath unfold.

Pre-Chorus:

I don't know why, I can't see how,

you'd bring this around.

Oh, hey, but you would.

Chorus:

I'd bring you back again,

I'd bring you back-I'd bring you

Ba-a-ck

Ba-a-ck.

I'd bring you back again,

I'd bring you back-I'd bring you

Ba-a-ck

Ba-a-ck, hey yeah!

Bridge:

A fire

In a rose

You're toxic

Y'know?

Red dress

Green eyes

I swallow

The lies

Temptation

Arose

But I conquered

My foes.

Yeah!

Tablature:

Pretty straight forward Play the same for the verse and pre-chorus.

Opening riff: {Riff #1}
 
e|----------------------------------------------------------------5-1p0------------|
B|-----------------------------9b{full}---------------------------------3----------|
G|---7-7--5-5-5-------------------------7-7--5-5-5---------------------------------|
D|---7-7--5-5-5--5-5-5--7-7-7-----------7-7--5-5-5--5-5-5--7-7-7-------------------|
A|---5-5--3-3-3--5-5-5--7-7-7-----------5-5--3-3-3--5-5-5--7-7-7-------------------|
E|---------------3-3-3--5-5-5-----------------------3-3-3--5-5-5-------------------|

Verse and pre-chorus:

e|------------------------------------|
B|------------------------------------|
G|---7-7---5-5------------------------|
D|---7-7---5-5--5-5---7-7-------------|
A|---5-5-0-3-3--5-5---7-7-------------|
E|--------------3-3-0-5-5-------------|

Chorus:

e|---------------------------------------|
B|---------------------------------------|
G|---7-7-7-7-5-5-5-5p0-------------------|
D|---7-7-7-7-5-5-5-5p0-5-5-5-5-7-7-7-7---|
A|---5-5-5-5-3-3-3-3p0-5-5-5-5-7-7-7-7---|
E|---------------------3-3-3-3-5-5-5-5---|

Solo {Before bridge}

e|--0/10-10-10-10-8-8-10-8-10-8\5-5-5-5-5-8-5-8-5\3-3-3-3-3-5-3-5-3-1-1-1-1-1-1------------|
B|------------------------------------------------------------------------------3-3--------|
G|-----------------------------------------------------------------------------------------|
D|-----------------------------------------------------------------------------------------|
A|-----------------------------------------------------------------------------------------|
E|-----------------------------------------------------------------------------------------|

e|--0/10-10-10-10-8-8-10-5-8-5/10-10-10-10-10-10-8-5------1-1-1/3-3/5-5/8-8-8-8-8-8/10-10--|
B|----------------------------------------------------3-3----------------------------------|
G|-----------------------------------------------------------------------------------------|
D|-----------------------------------------------------------------------------------------|
A|-----------------------------------------------------------------------------------------|
E|-----------------------------------------------------------------------------------------|

e|10/20-20-20-17-17-17-15-17-15-17-17-17-15-15-15\13\10-10-10-13-10-13-10-8-10-13-10-13----|
B|-----------------------------------------------------------------------------------------|
G|-----------------------------------------------------------------------------------------|
D|-----------------------------------------------------------------------------------------|
A|-----------------------------------------------------------------------------------------|
E|-----------------------------------------------------------------------------------------|

e|---17-17-15-15-15-13-10-10------|
B|--------------------------------|
G|--------------------------------|
D|----------------------------0~--|
A|----------------------------0~--|
E|--------------------------------|

Then play the bridge, and end with riff #1.

Thanks for playing, and be sure to check out the website! https://syithrockon3.wordpress.com/

************************************

| /   slide up
| \   slide down
| h   hammer-on
| p   pull-off
| ~   vibrato
| b   Bend

************************************
Добавлено: 11.07.2015
Другие материалы по этой песне:
  • Аккорды и текст

Страница создана 11.07.2015
http://primanota.ru/misc-unsigned-bands/syith-temptation-drive-chords.htm
Привет, Гость.
Предлагаем пройти революционный курс по гитаре.
Подарок от PrimaNota.Ru, забирай!