PrimaNota.ru - самый крупный в мире бесплатный архив песенных текстов, аккордов, табулатур и нот


Misc Unsigned Bands - Syith - Metallic - бас-таба, видео

Регистрация Запомнить меня
Войти через:  Facebook Google Twitter Vk Yandex Mail.ru

Misc Unsigned Bands - Syith - Metallic - бас-таба, видео

Печатать
Просмотров: 100
Уроки эстрадного вокала в Санкт-Петербурге
-------------------------------------------------------------------------------
                             Metallic - SYITH
-------------------------------------------------------------------------------
Tabbed by:ThorChicken
E-mail:privateawesome00@gmail.com

Tuning: Drop C

Key of D

Verse:

G|-----------------------------|
D|-----------------------------|
A|-----------------------------|
C|--2--2--0--4--0--0-----------|

G|-----------------------------|
D|-----------------------------|
A|-----------------------------|
C|--2--2--0--5--0--0-----------|(PLAY 3X)

G|-----------------------------|
D|-----------------------------|
A|----------------1/5--5--5--5-|
C|--2--2--0--4-----------------|

Chorus

G|--7/14--14--12--12--12--12---|
D|--5/12--12--10--10--10--10---|
A|-----------------------------|
C|-----------------------------|

G|--14--14--12--12--12--12-----|
D|--12--12--10--10--10--10-----|
A|-----------------------------|
C|-----------------------------|

G|--10--10-12--12--12--12------|
D|--8---8--10--10--10--10------|
A|-----------------------------|
C|-----------------------------|

G|--10--10-12--12--12--12------|
D|--8---8--10--10--10--10------|
A|-----------------------------|
C|-----------------------------|

G|--14--14--12--12--12--12-----|
D|--12--12--10--10--10--10-----|
A|-----------------------------|
C|-----------------------------|

G|--14--14--12--12--12--12-----|
D|--12--12--10--10--10--10-----|
A|-----------------------------|
C|-----------------------------|

G|--10--10-12--12--12--12------|
D|--8---8--10--10--10--10------|
A|-----------------------------|
C|-----------------------------|

G|--10--10-10------------------|
D|--8---8--10------------------|
A|-------------8--8\4----------|
C|-----------------------------|

Verse

G|-----------------------------|
D|-----------------------------|
A|-----------------------------|
C|--2--2--0--4--0--0-----------|

G|-----------------------------|
D|-----------------------------|
A|-----------------------------|
C|--2--2--0--5--0--0-----------|(PLAY 3X)

G|-----------------------------|
D|-----------------------------|
A|----------------1/5--5--5--5-|
C|--2--2--0--4-----------------|
Chorus

G|--7/14--14--12--12--12--12---|
D|--5/12--12--10--10--10--10---|
A|-----------------------------|
C|-----------------------------|

G|--14--14--12--12--12--12-----|
D|--12--12--10--10--10--10-----|
A|-----------------------------|
C|-----------------------------|

G|--10--10-12--12--12--12------|
D|--8---8--10--10--10--10------|
A|-----------------------------|
C|-----------------------------|

G|--10--10-12--12--12--12------|
D|--8---8--10--10--10--10------|
A|-----------------------------|
C|-----------------------------|

G|--14--14--12--12--12--12-----|
D|--12--12--10--10--10--10-----|
A|-----------------------------|
C|-----------------------------|

G|--14--14--12--12--12--12-----|
D|--12--12--10--10--10--10-----|
A|-----------------------------|
C|-----------------------------|

G|--10--10-12--12--12--12------|
D|--8---8--10--10--10--10------|
A|-----------------------------|
C|-----------------------------|

G|--10--10-10------------------|
D|--8---8--10------------------|
A|-------------8--8\4----------|
C|-----------------------------|

Verse

G|-----------------------------|
D|-----------------------------|
A|-----------------------------|
C|--2--2--0--4--0--0-----------|

G|-----------------------------|
D|-----------------------------|
A|-----------------------------|
C|--2--2--0--5--0--0-----------|(PLAY 3X)

G|-----------------------------|
D|-----------------------------|
A|----------------1/5--5--5--5-|
C|--2--2--0--4-----------------|

End

G|----------------------|
D|----------------------|
A|--5/17--17--17--17----|
C|----------------------|

https://syithrockon3.wordpress.com/

===============================================================================
Добавлено: 22.08.2015
Другие материалы по этой песне:
  • Аккорды и текст

Страница создана 22.08.2015
http://primanota.ru/misc-unsigned-bands/syith-metallic-chords.htm
Привет, Гость.
Предлагаем пройти революционный курс по гитаре.
Подарок от PrimaNota.Ru, забирай!