PrimaNota.ru - самый крупный в мире бесплатный архив песенных текстов, аккордов, табулатур и нот


Misc Unsigned Bands - Syith - I Give You - аккорды и текст, видео

Регистрация Запомнить меня
Войти через:  Facebook Google Twitter Vk Yandex Mail.ru

Misc Unsigned Bands - Syith - I Give You - аккорды и текст, видео

Печатать
Просмотров: 33
Syith - I Give You
Misc Unsigned Bands
-------------------------------------------------------------------------------
                             I Give You - Syith
-------------------------------------------------------------------------------
Tabbed by: ThorChicken
E-mail: privateawesome00@gmail.com

Tuning: Standard EADGBE

Ply this riff at the beginning
{Let ring}
e|---0~---4~---5~---0~---|
B|-----------------------|
G|-----------------------| Play 2X
D|-----------------------|
A|-----------------------|
E|-----------------------|
 Then this once, then go to lyrics
e|---------------------------------------------------------------------------|
B|---------------------------------------------------------------------------|
G|-------9-------9-------9-------9-------6-------6-------6-------6-----------|
D|-----9---9---9---9---9---9---9---9---6---6---6---6---6---6---6---6---------|(Riff 1.)
A|---7-------7-------7-------7-------4-------4-------4-------4---------------|
E|---------------------------------------------------------------------------|

e|---------------------------------------------------------------------------|
B|---------------------------------------------------------------------------|
G|-------2-------2-------2-------2-------9-------9-------9-------9-----------|
D|-----2---2---2---2---2---2---2---2---9---9---9---9---9---9---9---9---------|
A|---0-------0-------0-------0-------7-------7-------7-------7---------------|
E|---------------------------------------------------------------------------|

{Verse 1}
E5
I
              C#5
Learn from mistakes
         A5
When the night runs away,
           E5
I'll make another
E5
You
          C#5
See right through me,
     A5
From birth into pain
    E5
Temptation

(Bass enters)
E5
Bring
          C#5
Me to the mountain, 
          A5
Where the stone broke in two
   E5
Forever
E5
Lead
    C#5
Me away,
     A5
From moonlight to day
    E5
Solitary

{Chorus 1}
E5
I
         C#5
Show you joy
         A5
Show you hope
         E5
Show you laughter
    E5
But I
         C#5
Give you fear
         A5
Give you sorrow,
         E5
Give you hurt

e|----------------------|
B|----------------------|
G|---9-9-x----x-9-9-9---|
D|---9-9-x----x-9-9-9---| (Then return to riff 1.)
A|---7-7-x----x-7-7-7---|
E|----------------------|

{Verse 2}
E5
See
        C#5
All the scars
     A5
From wars
           E5
And bitter darkness
E5
Use
    C#5
The castoffs
   A5
To build your kingdom
     E5
From nothing
E5
Try
     C#5
My belief
A5
Limitless attacks
          E5
Unearthly faces
   E5
Predict
    C#5
The outcome
A5
One cry of doubt
        E5
One man down

{Chorus 2}
E5
I
         C#5
Show you love
         A5
Show you kisses
         E5
Show you friends
    E5
But I
         C#5
Give you loneliness
         A5
Give you harm, give you death
         E5
Give you pain

{Bridge}
E5
I
       C#5
Have a history
   A5
Of fights trials and wars
     E5
Persecution
E5
You
      C#5
Never cared
A5
What I was
         E5
Before redemption

{Chorus 3}
E5
I
         C#5
Give you joy
         A5
Give you hope
         E5
Give you laughter
    E5
But I
             C#5
Give you loneliness ohoho
         A5
Give you harm, give you death
             (Go to riff 2.)
And give you pain

e|---0-------------------------------0----------------------------------|
B|---0-------------------------------0----------------------------------|
G|---1-------------------------------2----------------------------------|
D|---2-----2-------2-------2-------2-2-----2-------2-------2-------2----| Repeat 8X (Riff 2.)
A|---2-2-2-2-2-2---2-2-2-2-2-2-2-2-2-0-0-0-0-0-0---0-0-0-0-0-0-0-0-0----| 
E|---0-0-0-0-0-0-0-0-0-0-0-0-0-0-0-0-0-0-0-0-0-0-0-0-0-0-0-0-0-0-0-0----|

e|---0~---4-4---5-5---0---|
B|---0~---5-5---5-5---0---|
G|---1~---6-6---6-6---1---| {Ad lib chords}
D|---2~---6-6---7-7---2---|
A|---2~---4-4---7-7---2---|
E|---0~---4-4---5-5---0---|
  E5
I give you, I give you,
  C#5
I give you, I give you,
  A5
I give you, I give you,
  E5
I give you ohh...
  E5
I give you, I give you,
  C#5
I give you, I give you,
  A5               E5
I give you, I give you...

{NOTE: ALL POWER CHORDS ARE PLAYED AS DEPICTED IN RIFF 1 UNLESS STATED OTHERWISE}

************************************

| ~   vibrato
| x   Mute note

************************************
Добавлено: 06.10.2015
Другие материалы по этой песне:
  • Аккорды и текст

Страница создана 06.10.2015
http://primanota.ru/misc-unsigned-bands/syith-i-give-you-chords.htm
Привет, Гость.
Предлагаем пройти революционный курс по гитаре.
Подарок от PrimaNota.Ru, забирай!