PrimaNota.ru - самый крупный в мире бесплатный архив песенных текстов, аккордов, табулатур и нот


Misc Unsigned Bands - Syith - Days Of Our Lives - бас-таба, видео

Регистрация Запомнить меня
Войти через:  Facebook Google Twitter Vk Yandex Mail.ru

Misc Unsigned Bands - Syith - Days Of Our Lives - бас-таба, видео

Печатать
Просмотров: 88
Syith-Days Of Our Lives

Intro: (Bass Thumping)

Main Chords: C# A F# F (Repeat 4X)

G|---------4--6--4-----|
D|------6-----------6--|(2X)
A|--4------------------|
E|---------------------|

G|---------------------|
D|--------5--7--5------|(2X)
A|-----7-----------7---|
E|--5------------------|

G|---------------------|
D|--------2--4--2------|(2X)
A|-----4-----------4---|
E|--2------------------|

G|---------------------|
D|--------1--3--1------|(2X)
A|-----3-----------3---|
E|--1------------------|

(Repeat Entire Bass Solo)

(Chords 4X, Then end on C#)
Добавлено: 24.08.2015
Другие материалы по этой песне:
  • Аккорды и текст

Страница создана 24.08.2015
http://primanota.ru/misc-unsigned-bands/syith-days-of-our-lives-chords.htm
Привет, Гость.
Предлагаем пройти революционный курс по гитаре.
Подарок от PrimaNota.Ru, забирай!