PrimaNota.ru - самый крупный в мире бесплатный архив песенных текстов, аккордов, табулатур и нот


Misc Unsigned Bands - Syith - Close My Eyes - таба, видео

Регистрация Запомнить меня
Войти через:  Facebook Google Twitter Vk Yandex Mail.ru

Misc Unsigned Bands - Syith - Close My Eyes - таба, видео

Печатать
Просмотров: 104
-------------------------------------------------------------------------------
                             Close My Eyes - SYITH
-------------------------------------------------------------------------------
Tabbed by: ThorChicken
E-mail: privateawesome00@gmail.com

Tuning: Standard EADGBE

{Riff 1.} Play this at beginning, during verse breaks, and fills
e|-------------------------------------------------|
B|-------------------------------------------------|
G|------------2-2--2-0-2-0----------2-2--2-0-2-0---|
D|---2--2-2-2-2-2--2-0-2-0-2--2-2-2-2-2--2-0-2-0---|
A|---2--2-2-2-0-0--0-0-0-0-2--2-2-2-0-0--0-0-0-0---|
E|---0--0-0-0--------------0--0-0-0----------------|

Verse 1:

Hit it! {Riff 1.}

Bring me down to the orphan child, throw me love till I can't see past the line,

{Riff 1.}

Free the world of violent sin, let all races of people in,

{Riff 1.}

I promise I won't tell you what life to live,

but I'll promise you this: I'm never gonna give,

{Riff 1.}

Pain and laughter share a room, uncaring eyes spell out our doom,

{Riff 1.}

Play this during "I won't ever forget..." {Riff 2.}
e|--------------------------------|
B|---3----------------------3-----|
G|---2--2-------------------2--2--|
D|---0--2--2--2-2-2-x-2-2---0--2--| (Go to Riff 1.}
A|------0--2--2-2-2-x-2-2------0--|
E|---------0--0-0-0-x-0-0---------|

Chorus:

I won't ever forget,

I won't close my eyes!

Verse 2:

You can tread on my land, you can tread on my dreams,

but never go so far as to tread on me,

Wisdom comes to those who wait, I'd rather turn to the bottle and to hate,

A flower blooms in a garden bed, just to be cursed by the man with the cross of lead,

Soldiers die for a speck of land while politicians say that they had a hand,

Chorus:

I won't ever forget,

And I won't close my eyes!

Solo
e|--------------------------------------------------------------------|
B|--------------------------------------------------------------------|
G|---9--9-9-7-7-4-4--9--9-9-7-7-4-4--2--2-2-4-4-0-0--2--2-2-4-4-0-0---|
D|---9--9-9-7-7-4-4--9--9-9-7-7-4-4--2--2-2-4-4-0-0--2--2-2-4-4-0-0---| X2
A|---7--7-7-5-5-2-2--7--7-7-5-5-2-2--0--0-0-2-2-0-0--0--0-0-2-2-0-0---|
E|--------------------------------------------------------------------|

e|-------------------------------------------------|
B|-------------------------------------------------|
G|------------2-2--2-0-2-0----------2-2--2-0-2-0---|
D|---2--2-2-2-2-2--2-0-2-0-2--2-2-2-2-2--2-0-2-0---|
A|---2--2-2-2-0-0--0-0-0-0-2--2-2-2-0-0--0-0-0-0---|
E|---0--0-0-0--------------0--0-0-0----------------|

e|---0-----------0---------0-----------3-----2-------|
B|-----0-----------0---------0-----------3-----3-----|
G|-------0-----------0---------0-----------0-----0---|
D|---------0---0-------0-2-------0---0---------------| X2
A|-----------0---------------------0-----------------|
E|---------------------------------------------------|

e|-------------------------------------------------|
B|-------------------------------------------------|
G|------------2-2--2-0-2-0----------2-2--2-0-2-0---|
D|---2--2-2-2-2-2--2-0-2-0-2--2-2-2-2-2--2-0-2-0---|
A|---2--2-2-2-0-0--0-0-0-0-2--2-2-2-0-0--0-0-0-0---|
E|---0--0-0-0--------------0--0-0-0----------------|

Chorus: {Riff 2.}

I won't ever forget,

I won't close my eyes!

{Riff 1.}

************************************

| x   Mute note

************************************
Добавлено: 19.10.2015
Другие материалы по этой песне:
  • Аккорды и текст

Страница создана 19.10.2015
http://primanota.ru/misc-unsigned-bands/syith-close-my-eyes-chords.htm
Привет, Гость.
Предлагаем пройти революционный курс по гитаре.
Подарок от PrimaNota.Ru, забирай!