PrimaNota.ru - самый крупный в мире бесплатный архив песенных текстов, аккордов, табулатур и нот


Misc Unsigned Bands - Switch - All Day Comfort - таба, видео

Регистрация Запомнить меня
Войти через:  Facebook Google Twitter Vk Yandex Mail.ru

Misc Unsigned Bands - Switch - All Day Comfort - таба, видео

Печатать
Просмотров: 33
-----------------------------------------------------------------------------
                         ALL DAY COMFORT - SWiTCH
-----------------------------------------------------------------------------
Tabbed by: Tek (the_kid_tek) & Alex (Alexawesome)
Email: mortalsquirrel@hotmail.co.uk

Guitar I (D A D G B E)
Guitar II (D A D G B E)


 "Intro" (0:00-0:10)

Gtr I                                   
e||--------------------------------------| 
B||--------------------------------------|
G||--------------------------------------| 
D||--------------------------------------|
A||-12--------11-----5---7---7-----------|
D||---0-0-0--0---0-0---0---0---0-0-0--0--|x2
      PM. .  .   . .   .   .   . . .  .

e||---------------------------------------------|
B||---------------------------------------------|
G||---------------------------------------------|
D||---------------------------------------------|
A||-12----------11-----14-----11---11-----------|
D||----0-0-0--0----0-0----0-0----0----0-0-0--0--|
       PM. .  .    . .    . .    .    . . .  .

e||-----------------------------------|
B||-----------------------------------|
G||-----------------------------------|
D||-----------------------------------|
A||--12-12-12-11-11-11-5-5-7-7-7-7-7--|
D||-----------------------------------|


 "Verse" (0:10-0:20)

Gtr I
e||------------------------------------------------|
B||------------------------------------------------|
G||------------------------------------------------|
D||------------------------------------------------|
A||-------10-------9-------13-------9-------10-----|
D||-10-10----10-10---10-10----10-10---10-10--------|

e||------------------------------------------------|
B||------------------------------------------------|
G||------------------------------------------------|
D||------------------------------------------------|
A||-------10-------9-------13-------9-------10-10--|
D||-10-10----10-10---10-10----10-10---10-10--------|

e||------------------------------------------------|
B||------------------------------------------------|
G||------------------------------------------------|
D||------------------------------------------------|
A||-------10-------9-------13-------9-------10-----|
D||-10-10----10-10---10-10----10-10---10-10--------|

e||------------------------------------------------|
B||------------------------------------------------|
G||------------------------------------------------|
D||------------------------------------------------|
A||-------10-------9-------8-------7-------7-------|
D||-10-10----10-10---10-10---10-10---10-10---------|


 "Harmony" (0:21-0:23)

Gtr I                                                     
e||--------------------------------------------------------|
B||--------------------------------------------------------|
G||--------------------------------------------------------|
D||--------------------------------------------------------|
A||-------10-------9-------13-------9-------10\------------|
D||-10-10----10-10---10-10----10-10---10-10----------------|

Gtr II
e||--------------------------------------------------------|
B||--------------------------------------------------------|
G||--------------------------------------------------------|
D||--------------------------------------------------------|
A||--------14-------13-------17-------13-------14\---------|
D||--14-14----14-14----14-14----14-14----14-14-------------|


 "Verse" (0:24-0:31)

Gtr I
e||------------------------------------------------|
B||------------------------------------------------|
G||------------------------------------------------|
D||------------------------------------------------|
A||-------10-------9-------13-------9-------10-10--|
D||-10-10----10-10---10-10----10-10---10-10--------|

e||------------------------------------------------|
B||------------------------------------------------|
G||------------------------------------------------|
D||------------------------------------------------|
A||-------10-------9-------13-------9-------10-----|
D||-10-10----10-10---10-10----10-10---10-10--------|

e||------------------------------------------------|
B||------------------------------------------------|
G||------------------------------------------------|
D||------------------------------------------------|
A||-------10-------9-------8-------7-------7-------|
D||-10-10----10-10---10-10---10-10---10-10---------|


 "Breakdown" (0:31-0:52) 

Gtr I
e||------------------------------------------------|
B||------------------------------------------------|
G||------------------------------------------------|
D||----5---4-5-0-----8-----7---------10----10------|
A||--3---3--------/6---6-8---8---/10----10---------|
D||------------------------------------------------|

e||------------------------------------------------|
B||------------------------------------------------|
G||------------------------------------------------|
D||-----5---4-5-0-----8-----7-------7--------------|
A||---3---3--------/6---6-8---8---5----------------|
D||-----------------------------------7-7----------|x2

e||------------------------------------------------|
B||------------------------------------------------|
G||------------------------------------------------|
D||-----7---6-7-0-----10------9----------12----12--|
A||---5---5--------/8----8-10---10---/12----12-----|
D||------------------------------------------------|

e||------------------------------------------------|
B||------------------------------------------------|
G||------------------------------------------------|
D||-----7---6-7-0-----10------9--------9-----------|
A||---5---5--------/8----8-10---10---7-------------|
A||--------------------------------------9-9-------|x2


 "Verse" (0:53-1:03)

Gtr I
e||------------------------------------------------|
B||------------------------------------------------|
G||------------------------------------------------|
D||------------------------------------------------|
A||-------10-------9-------13-------9-------10-----|
D||-10-10----10-10---10-10----10-10---10-10--------|

e||------------------------------------------------|
B||------------------------------------------------|
G||------------------------------------------------|
D||------------------------------------------------|
A||-------10-------9-------13-------9-------10-10--|
D||-10-10----10-10---10-10----10-10---10-10--------|

e||------------------------------------------------|
B||------------------------------------------------|
G||------------------------------------------------|
D||------------------------------------------------|
A||-------10-------9-------13-------9-------10-----|
D||-10-10----10-10---10-10----10-10---10-10--------|

e||------------------------------------------------|
B||------------------------------------------------|
G||------------------------------------------------|
D||------------------------------------------------|
A||-------10-------9-------8-------7-------7-------|
D||-10-10----10-10---10-10---10-10---10-10---------|


 "Harmony" (1:03-1:06)  

Gtr I
e||-------------------------------------------------|
B||-------------------------------------------------|
G||-------------------------------------------------|
D||-------------------------------------------------|
A||-------10-------9-------13-------9-------10\-----|
D||-10-10----10-10---10-10----10-10---10-10---------|

Gtr II
e||-------------------------------------------------|
B||-------------------------------------------------|
G||-------------------------------------------------|
D||-------------------------------------------------|
A||--------14-------13-------17-------13-------14\--|
D||--14-14----14-14----14-14----14-14----14-14------|


 "Breakdown" (1:06-1:16)

Gtr I
e||------------------------------------------------|
B||------------------------------------------------|
G||------------------------------------------------|
D||----5---4-5-0-----8-----7---------10----10------|
A||--3---3--------/6---6-8---8---/10----10---------|
D||------------------------------------------------|

e||------------------------------------------------|
B||------------------------------------------------|
G||------------------------------------------------|
D||-----5---4-5-0-----8-----7-------7--------------|
A||---3---3--------/6---6-8---8---5----------------|
D||-----------------------------------7-7----------|

e||------------------------------------------------|
B||------------------------------------------------|
G||------------------------------------------------|
D||-----7---6-7-0-----10------9----------12----12--|
A||---5---5--------/8----8-10---10---/12----12-----|
D||------------------------------------------------|

e||------------------------------------------------|
B||------------------------------------------------|
G||------------------------------------------------|
D||-----7---6-7-0-----10------9--------9-----------|
A||---5---5--------/8----8-10---10---7-------------|
D||--------------------------------------9-9-------|


 "Outro" (1:17-1:20)

Gtr I
e||----------------------------------------|
B||----------------------------------------|
G||----------------------------------------|
D||--------17-------16-------15-------14\--|
A||--15-15----15-15----15-15----15-15------|
D||----------------------------------------|


Tablature Legend
----------------

| /  slide up
| \  slide down
| h  hammer-on
| p  pull-off
| ~  vibrato
| +  harmonic
| x  Mute note
| .  Palm mute note

============================================================================
Добавлено: 31.01.2014
Другие материалы по этой песне:
  • Аккорды и текст

Страница создана 31.01.2014
http://primanota.ru/misc-unsigned-bands/switch-all-day-comfort-chords.htm
Привет, Гость.
Предлагаем пройти революционный курс по гитаре.
Подарок от PrimaNota.Ru, забирай!