PrimaNota.ru - самый крупный в мире бесплатный архив песенных текстов, аккордов, табулатур и нот


Misc Unsigned Bands - Swear By This - Brand New - таба

Регистрация Запомнить меня
Войти через:  Facebook Google Twitter Vk Yandex Mail.ru

Misc Unsigned Bands - Swear By This - Brand New - таба

Печатать
Просмотров: 36
Tabbed by: Mentalcase13
Email: noah.hafford@gmail.com

Tuning: E (standard)
| /  slide up
| \  slide down
| h  hammer-on
| p  pull-off
| ~  vibrato
| +  harmonic
| x  Mute note
===============================================================================
 Intro/Chorus:
e|--0------0---0---0-----0----------0-------0---0---0-----0------------------|
B|-------------------------9--------------------------------9----------------|
G|---3-3/6---6---3---3/9-----9--------3-3/6---6---3---3/9-----9--------------|
D|---------------------------------------------------------------------------|
A|-0------------------------------0------------------------------------------|
E|---------------------------------------------------------------------------|
 
e|--0------0---0---0-----0----------0-------0---0---0-----0------------------|
B|-------------------------9--------------------------------9----------------|
G|---3-3/6---6---3---3/9-----9--------3-3/6---6---3---3/9-----9--------------|
D|-0------------------------------0------------------------------------------|
A|---------------------------------------------------------------------------|
E|---------------------------------------------------------------------------|

 Verse:X2
e|---------------------------------------------------------------------------|
B|---------------------------------------------------------------------------|
G|-x-9-x-9-x-x-6----x-9-x-9-x-x-6--------------------------------------------|
D|-x---x---x-x------x---x---x-x----------------------------------------------|
A|-x-7-x-7-x-x-4----x-7-x-7-x-x-4--------------------------------------------|
E|---------------------------------------------------------------------------|

e|------------------------------10-------------------------------------------|
B|-x10-x10-x-x-7----x10-x10-x-x-10-7-----------------------------------------|
G|-x-9-x-9-x-x-7----x-9-x-9-x-x----7-----------------------------------------|
D|-x-7-x-7-x-x------x-7-x-7-x-x----------------------------------------------|
A|---------------------------------------------------------------------------|
E|---------------------------------------------------------------------------|

 Fill:1
e|---------------------------------------------------------------------------|
B|---------------------------------------------------------------------------|
G|---------------------------------------------------------------------------|
D|---------------------------------------------------------------------------|
A|---------------------------------------------------------------------------|
E|-1/------------------------------------------------------------------------|

 Bridge:X2
e|---------------------------------------------------------------------------|
B|---------------------------------------------------------------------------|
G|-x-9-x-9-x-x-6-6--6-6-6----x-9-x-9-x-x-6-6--6-6-6--------------------------|
D|-x---x---x-x---------------x---x---x-x-------------------------------------|
A|-x-7-x-7-x-x-4-4--4-4-4----x-9-x-9-x-x-4-4--4-4-4--------------------------|
E|---------------------------------------------------------------------------|

e|---------------------------------------10----------------------------------|
B|-x10-x10-x-x-9-9--9-9-9----x10-x10-x-x-10-9-9--9-9-9-----------------------|
G|-x-9-x-9-x-x-9-9--9-9-9----x-9-x-9-x-x----9-9--9-9-9-----------------------|
D|-x-7-x-7-x-x---------------x-7-x-7-x-x-------------------------------------|
A|---------------------------------------------------------------------------|
E|---------------------------------------------------------------------------|


 Solo:(I haven't tabbed this yet, I'll probably do a solo tab for it later)

 Outro:
e|-0--------------------------------------------------------------------------|
B|-0--------------------------------------------------------------------------|
G|-2--------------------------------------------------------------------------|
D|-2--------------------------------------------------------------------------|
A|-0--------------------------------------------------------------------------|
E|----------------------------------------------------------------------------|

Thanks, hope the tab's okay.

Noah
Добавлено: 25.09.2013
Другие материалы по этой песне:
  • Аккорды и текст

Страница создана 25.09.2013
http://primanota.ru/misc-unsigned-bands/swear-by-this-brand-new-chords.htm
Привет, Гость.
Предлагаем пройти революционный курс по гитаре.
Подарок от PrimaNota.Ru, забирай!