PrimaNota.ru - самый крупный в мире бесплатный архив песенных текстов, аккордов, табулатур и нот


Misc Unsigned Bands - Sv42 - Double Trouble - бас-таба

Регистрация Запомнить меня
Войти через:  Facebook Google Twitter Vk Yandex Mail.ru

Misc Unsigned Bands - Sv42 - Double Trouble - бас-таба

Печатать
Просмотров: 61
Уроки эстрадного вокала в Санкт-Петербурге
----------------------------------------------------------------------------
			     Double Trouble - Sv42
----------------------------------------------------------------------------

Tabbed By : Levi Morales
e-mail: muzikboy3@aol.com

Tuning: Standard

Needs 2 Basses

Intro(3x)
Bass1
G|-15h16--16h17--17h18|
D|--------------|
A|--------------|-----
E|--------------|    |
                     |
Bass2                |
G|--------------|    |
D|--------------|-----
A|--------------|
E|-18p17--17p16--16p15|

Riff1
Bass1
G|-10---10---10---10|
D|---8---8---8--|
A|--------------|-----
E|--------------|    |
                     |
Bass2                |
G|--------------|    |
D|--------------|----- 
A|---10---10---10--|
E|-12---12---12---12|

Bass1
G|-12---12---12---12|
D|---10---10---10--|
A|--------------|-----
E|--------------|    |
                     |
Bass2                |
G|--------------|    |
D|--------------|-----
A|---8---8---8--|
E|-10---10---10---10|

Chorus
Bass1
G|--99--99--99--|
D|--------------|
A|--------------|-----
E|--------------|    |
                     |
Bass2                |
G|--------------|    |
D|--------------|-----
A|--------------|
E|--55--55--55--|

Bass1
G|--77--77--77--|
D|--------------|
A|--------------|-----
E|--------------|    |
                     |
Bass2                |
G|--------------|    |
D|--------------|-----
A|--------------|
E|--77--77--77--|

Bass1
G|--55--55--55--|
D|--------------|
A|--------------|-----
E|--------------|    |
                     |
Bass2                |
G|--------------|    |
D|--------------|-----
A|--------------|
E|--77--77--77--|

Both
G|--------------|
D|-12~~~~~~~~~~-12|
A|-12~~~~~~~~~~-12|
E|--------------|

Bass1 Solo
Bass1 (Only)
G|-15-16-17--15-16-17-|
D|--------------|
A|--------------|
E|--------------|

G|-16-17-18--16-17-18-|
D|--------------|
A|--------------|
E|--------------|

G|-17-18-19--17-18-19-|
D|--------------|
A|--------------|
E|--------------|

G|--12--12--12~~~~~|
D|--------------|
A|--------------|
E|--------------|

Chorus




Riff2
Both
G|-777777777777-|
D|--------------|
A|--------------|
E|--------------|

Both
G|--------------|
D|-888888888888-|
A|--------------|
E|--------------|

Both
G|-777777777777-|
D|--------------|
A|--------------|
E|--------------|

Both
G|--------------|
D|-888888888888-|
A|--------------|
E|--------------|

Chorus




Bass2 Solo
Bass2 (Only)
G|--------------|
D|--------------|
A|--------------|
E|-19-18-17--19-18-17-|

G|--------------|
D|--------------|
A|--------------|
E|-18-17-16--18-17-16|

G|--------------|
D|--------------|
A|--------------|
E|-17-16-15--17-16-15|

G|--------------|
D|--------------|
A|--------------|
E|--12--12--12~~~~~|

Chorus




Riff3
Bass1
G|-1-1-2-2-3-3-5|
D|--------------|
A|--------------|-----
E|--------------|    |
(x2)                 |
                     |
Bass2                |
G|-5-5-3-3-2-2-1|-----
D|--------------|
A|--------------|
E|--------------|
(x2)

Chorus




Outro
Bass1
   xxxxxxxxxxxx
G|-999999999999-|
D|--------------|
A|--------------|
E|--------------|

   xxxxxxxxxxxx
G|-777777777777-|
D|--------------|
A|--------------|
E|--------------|

   xxxxxxxxxxxx
G|-555555555555-|
D|--------------|
A|--------------|
E|--------------|

Bass2
   xxxxxxxxxxxx
G|-888888888888-|
D|--------------|
A|--------------|
E|--------------|

   xxxxxxxxxxxx
G|-666666666666-|
D|--------------|
A|--------------|
E|--------------|

   xxxxxxxxxxxx
G|-444444444444-|
D|--------------|
A|--------------|
E|--------------|

Both
    x  x  x  x  x  x  x  x  x  x  x  x  x
G|-12-12-12-12-12-12-12-12-12-12-12-12-12-|
D|--------------|
A|--------------|
E|--------------|

G|--12--12--12~~~~12|
D|--------------|
A|--------------|
E|--------------|


| -
|  | Same Time
| -
| h  Hammer-on
| p  Pull-off
| ~  Vibrato
| x  Slap Note
============================================================================
Добавлено: 04.08.2013
Другие материалы по этой песне:
  • Аккорды и текст

Страница создана 04.08.2013
http://primanota.ru/misc-unsigned-bands/sv42-double-trouble-chords.htm
Привет, Гость.
Предлагаем пройти революционный курс по гитаре.
Подарок от PrimaNota.Ru, забирай!