PrimaNota.ru - самый крупный в мире бесплатный архив песенных текстов, аккордов, табулатур и нот


Misc Unsigned Bands - Super Smash Bros Melee Orchrestra - Fourside - таба

Регистрация Запомнить меня
Войти через:  Facebook Google Twitter Vk Yandex Mail.ru

Misc Unsigned Bands - Super Smash Bros Melee Orchrestra - Fourside - таба

Печатать
Просмотров: 55
-----------------------------------------------------------------------------
Fourside - Super Smash Bros. Melee
-----------------------------------------------------------------------------
Tuning: Standard

e|-------------2--|
B|-------------2--|
G|---------0-3----|
D|-------0--------|
A|-0-0-0----------|
E|----------------|

CHORUS;

e|-----------------------0-2------------------------------------------------|
B|-------0-1-3---------0-----3----0-1-0--------0-1-3-1-0-3-----0-1-0--------|
G|---0-2-----------0-0------------------2-0-2--------------1-2-------2-0----|
D|-0---------------------------------------------------------------------4-4|
A|--------------------------------------------------------------------------|
E|--------------------------------------------------------------------------|

e|-----------|
B|-----------|
G|-0-2-2-0-0-|
D|-----------|
A|-----------|
E|-----------|

***Repeat chorus once***

e|---------0------------0-0------------2---0-2-3-2----------2---0-2-4-5---3-|
B|-3-0-2-3---3-0----3-0-----3-2-0--------3---------3----------3-------------|
G|--------------------------------------------------------------------------|
D|--------------------------------------------------------------------------|
A|--------------------------------------------------------------------------|
E|--------------------------------------------------------------------------|

e|---------------------------------------------------------------------|
B|---------------------------------------------------------------------|
G|------0-------0----------0--------0----------0-------0-------0-0---0-|
D|--------3--------3---------3---------3---------3-------3---------3---|
A|---0--------0---------0--------0-----------0-------0-----------------|
E|-1--------1---------1--------1-----------0-------0-------------------|

e|-----------------------0-2------------------------------------------------|
B|-------0-1-3---------0-----3----0-1-0--------0-1-3-1-0-3-----0-1-0--------|
G|---0-2-----------0-0------------------2-0-2--------------1-2-------2-0----|
D|-0---------------------------------------------------------------------4-4|
A|--------------------------------------------------------------------------|
E|--------------------------------------------------------------------------|

e|-----------|
B|-----------|
G|-0-2-2-0-0-|
D|-----------|
A|-----------|
E|-----------|

***OPTIONAL: After chorus, wait about 15 seconds then play next part***
 
e|---------------------------------------------------|
B|-------0-0-3-----0---------0-----0-----0-3-2-2-3-3-|
G|---0-2-------2-2---0----0-----2-----0--------------|
D|-0-------------------------------------------------|
A|---------------------------------------------------|
E|---------------------------------------------------|

e|---------------------|
B|-------0-0-3-----0---|
G|---0-2-------2-2---0-|
D|-0-------------------|
A|---------------------|
E|---------------------|
Добавлено: 02.12.2013
Другие материалы по этой песне:
  • Аккорды и текст

Страница создана 02.12.2013
http://primanota.ru/misc-unsigned-bands/super-smash-bros-melee-orchrestra-fourside-chords.htm
Привет, Гость.
Предлагаем пройти революционный курс по гитаре.
Подарок от PrimaNota.Ru, забирай!