PrimaNota.ru - самый крупный в мире бесплатный архив песенных текстов, аккордов, табулатур и нот


Misc Unsigned Bands - Straatligkinders - Bloeisels - таба

Регистрация Запомнить меня
Войти через:  Facebook Google Twitter Vk Yandex Mail.ru

Misc Unsigned Bands - Straatligkinders - Bloeisels - таба

Печатать
Просмотров: 48
Band: Straatligkinders
Song title: Bloeisels

Verse:
e|-------------------------------------------------------------|
B|-------------------------------------------------------------|
G|-----11-11-----11-11-----------------11-11-----11-11---------|
D|-------------------------------------------------------------|
A|-9-9-------9-9-------12-12-12-12-9-9-------9-9-------7-7-7-7-|
E|---------------------10-10-10-10---------------------5-5-5-5-|

e|---------------------------------------------------|
B|---------------------------------------------------|
G|-------------7-7-7/9-9-----11-11-----11-11---------|
D|-0-0-7-7-0-0-x x x x x---------------------9-9-9-9-|
A|-0-0-5-5-0-0-5-5-5/7-7-9-9-------9-9-------7-7-7-7-|
E|---------------------------------------------------|

e|-------------------------------------------------------------|
B|-------------------------------------------------------------|
G|-----11-11-----11-11-----------------11-11-----11-11---------|
D|-------------------------------------------------------------|
A|-9-9-------9-9-------12-12-12-12-9-9-------9-9-------7-7-7-7-|
E|---------------------10-10-10-10---------------------5-5-5-5-|

e|---------------------------------------------------|
B|---------------------------------------------------|
G|-------------7-7-7/9-9-----11-11-----11-11---------|
D|-0-0-7-7-0-0-x x x x x---------------------9-9-9-9-|
A|-0-0-5-5-0-0-5-5-5/7-7-9-9-------9-9-------7-7-7-7-|
E|---------------------------------------------------|

Pre-Chorus:
e|----------------------------------------------------------------|
B|----------------------------------------------------------------|
G|-------11-11-------11-11-9-11-9-------11-11-------11-11-9-11-9\-|
D|----------------------------------------------------------------|
A|-9-9-9-------9-9-9--------------9-9-9-------9-9-9---------------|
E|----------------------------------------------------------------|
   * * *       * * *              * * *       * * *

e|--------------------------------------------------------|
B|--------------------------------------------------------|
G|-------7-7-------7-7-7/9-9-------11-11-------11-11-11\9-|
D|--------------------------------------------------------|
A|-5-5-5-----5-5-5-----------9-9-9-------9-9-9------------|
E|--------------------------------------------------------|
   * * *     * * *           * * *       * * *

Chorus:
e|-------------------------------------------------------------|
B|-------------------------------------------------------------|
G|-11-11-11-11-11-11-11-11-11-11-11-11-11-11-11-13-13-13-13-13-|
D|-x x x x x x x x x x x x x x x x x x x x x x x x x x x x x x-
A|--9--9--9--9--9--9--9--9--9--9--9--9--9--9--9-11-11-11-11-11-|
E|-------------------------------------------------------------|

e|-------------------------------------|
B|-------------------------------------|
G|---------------------7-7-7-7-7-7-7-7-|
D|-7-7-7-7-7-7-7-7-7-7-7-7-7-7-7-7-7-7-|
A|-7-7-7-7-7-7-7-7-7-7-5-5-5-5-5-5-5-5-|
E|-5-5-5-5-5-5-5-5-5-5-----------------|

e|-------------------------------------------------------------|
B|-------------------------------------------------------------|
G|-11-11-11-11-11-11-11-11-11-11-11-11-11-11-11-13-13-13-13-13-|
D|-x x x x x x x x x x x x x x x x x x x x x x x x x x x x x x-
A|--9--9--9--9--9--9--9--9--9--9--9--9--9--9--9-11-11-11-11-11-|
E|-------------------------------------------------------------|

e|-------------------------------------|
B|-------------------------------------|
G|---------------------7-7-7-7-7-7-7-7-|
D|-7-7-7-7-7-7-7-7-7-7-7-7-7-7-7-7-7-7-|
A|-7-7-7-7-7-7-7-7-7-7-5-5-5-5-5-5-5-5-|
E|-5-5-5-5-5-5-5-5-5-5-----------------|

Repeat verse

Repeat pre-chorus

Repeat chorus

Bridge:
e|---------------------------------------------------------|
B|---------------------------------------------------------|
G|---------------------------------------------------------|
D|-----------------4-4-4-4-4-4-4-4-4-4-7-7-7-7-7-7-7-7-7-7-|
A|-4-4-4-4-4-4-4-4-4-4-4-4-4-4-4-4-4-4-7-7-7-7-7-7-7-7-7-7-|
E|-2-2-2-2-2-2-2-2-2-2-2-2-2-2-2-2-2-2-5-5-5-5-5-5-5-5-5-5-|
   * * * * * * * *

e|-----------------|
B|-----------------|
G|-----------------|
D|-0-0-0-0-0-0-0-0-|
A|-0-0-0-0-0-0-0-0-|
E|-----------------|

e|---------------------------------------------------|
B|---------------------------------------------------|
G|---------------------------------------------------|
D|-4-4-4-4-4-4-4-4-4-4-4-4-4-4-4-7-7-7-7-7-7-7-7-7-7-|
A|-4-4-4-4-4-4-4-4-4-4-4-4-4-4-4-7-7-7-7-7-7-7-7-7-7-|
E|-2-2-2-2-2-2-2-2-2-2-2-2-2-2-2-5-5-5-5-5-5-5-5-5-5-|

e|-----------------|
B|-----------------|
G|-----------------|
D|-0-0-0-0-0-0-0-0-|
A|-0-0-0-0-0-0-0-0-|
E|-----------------|

Outro:
e|-------------------------------------------|
B|-------------------------------------------|
G|-------------------------------13-13-14-13-|
D|-4-4-4-4---4-4-4-4---4-4-4-4---x x x x x x-|
A|-4-4-4-4---4-4-4-4---4-4-4-4---11-11-12-11-|
E|-2-2-2-2---2-2-2-2---2-2-2-2---------------|

e|-------------------------------------|
B|-------------------------------------|
G|-------------------------------------|
D|-7-7-7-7-7-7-7-7-7-7-0-0-0-0-0-0-0-0-|
A|-7-7-7-7-7-7-7-7-7-7-0-0-0-0-0-0-0-0-|
E|-5-5-5-5-5-5-5-5-5-5-----------------|

e|-------------------------------------------|
B|-------------------------------------------|
G|-------------------------------13-13-14-13-|
D|-4-4-4-4---4-4-4-4---4-4-4-4---x x x x x x-|
A|-4-4-4-4---4-4-4-4---4-4-4-4---11-11-12-11-|
E|-2-2-2-2---2-2-2-2---2-2-2-2---------------|

e|-----------------------------------------------------|
B|-----------------------------------------------------|
G|-----------------------------------------------------|
D|-7-7-7-7-7-7-7-7-7-7-0-0-0-0-0-0-0-0-4-4-4-4---x-4\--|
A|-7-7-7-7-7-7-7-7-7-7-0-0-0-0-0-0-0-0-4-4-4-4---x-4\--|
E|-5-5-5-5-5-5-5-5-5-5-----------------2-2-2-2---x-2\--|
Добавлено: 02.11.2013
Другие материалы по этой песне:
  • Аккорды и текст

Страница создана 02.11.2013
http://primanota.ru/misc-unsigned-bands/straatligkinders-bloeisels-chords.htm
Привет, Гость.
Предлагаем пройти революционный курс по гитаре.
Подарок от PrimaNota.Ru, забирай!