PrimaNota.ru - самый крупный в мире бесплатный архив песенных текстов, аккордов, табулатур и нот


Misc Unsigned Bands - Stikki Fingers - 4 Letter Love - таба, видео

Регистрация Запомнить меня
Войти через:  Facebook Google Twitter Vk Yandex Mail.ru

Misc Unsigned Bands - Stikki Fingers - 4 Letter Love - таба, видео

Печатать
Просмотров: 82
Stikki Fingers - 4 letter love (from Grand Theft Auto soundtrack)
Written by Colin Anderson & Brian Baglow
Standard tuning
Tabbed by Avvethegreat

/ = full bend
\ = release
h = hammer on
p = pull off
~ = vibrato

This is a classic rock piece from the first GTA game and I thought
there should be a tab of it online. There could be some mistakes in
the solo but it still sounds very close to the original. Enjoy!

Intro:

E|-----------------------------------------------------------------|
B|-----------------------------------------------------------------|
G|-10--10-9---10--9--10----8--8----8-------------------------------|
D|-10--10-10--10--10-10----8--8-8--8--8-10-------------------------|
A|-8---8--8---8---8--8-----6--6-8--6--8-10-------------------------|
E|------------------------------6-----6-8--------------------------|

Verse (2x)

"I was cruising down the freeway with the guys in LA..."

E|-----------------------------------------------------------------|
B|-----------------------------------------------------------------|
G|-10---10-10---10-10---10-10---10-8---8-8---8-10---10-10---10-----|
D|-10---10 10---10-10---10-10---10-8---8-8---8-10---10-10---10-----|
A|-8----8--8----8--8----8--8----8--6---6-6---6-8----8--8----8------|
E|-----------------------------------------------------------------|

Chorus

E|-----------------------------------------------------------------|
B|-----------------------------------------------------------------|
G|--------8-7-5-7-------8-7-5-7-----6-5-3-5-----6-5-3-5------------|
D|-10-10--8-7-5-7-10-10-8-7-5-7-8-8-6-5-3-5-8-8-6-5-3-5------------|
A|-10-10----------10-10---------8-8---------8-8--------------------|
E|-8--8-----------8--8----------6-6---------6-6--------------------|

E|-----------------------------------------------------------------|
B|-----------------------------------------------------------------|
G|--------8-7-5-7-------8-7-5-7-----6-5-3-5------8---8-------------|
D|-10-10--8-7-5-7-10-10-8-7-5-7-8-8-6-5-3-5-8-8--8-8-8-------------|
A|-10-10----------10-10---------8-8---------8-8--6-8-6-------------|
E|-8--8-----------8--8----------6-6---------6-6----6---------------|


Solo (rhythm guitar plays verse riff during solo)


E|-----------------------------------------------------------------|
B|----13h16p13----13h16p13----13h16p13----13h16p13----13h16p13-----|
G|-15----------15----------15----------15----------15----------15--|
D|-----------------------------------------------------------------|
A|-----------------------------------------------------------------|
E|-----------------------------------------------------------------|


E|-----------------------------------------------------------------|
B|-13h16p13----13h16p13-16-/~~~~\-13-16-13-------------------------|
G|----------15-----------------------------------------------------|
D|-----------------------------------------------------------------|
A|-----------------------------------------------------------------|
E|-----------------------------------------------------------------|


E|-----------------------------------------------------------------|
B|-----------------------------------------------------------------|
G|-15/\-13-15-13---------------------------------------------------|
D|---------------15-15/\-13-15-13----------------------------------|
A|--------------------------------15------------13-13-13-15-15-----|
E|-----------------------------------13---13-16--------------------|

E|-----------------------------------------------------------------|
B|-----------------------------------------------------------------|
G|-----------------------------------------------------------------|
D|-15/\-13-13----------------13h15-15/-13--------------------------|
A|------------15-13-13h15-15---------------------------------------|
E|-----------------------------------------------------------------|

E|-----------------------------------------------------------------|
B|-----------------------------------------------------------------|
G|-------13-------15p13----------13-------15p13----------13--------|
D|-13-15----15p13-------15p13-15----15p13-------15p13-15----15p13--|
A|-----------------------------------------------------------------|
E|-----------------------------------------------------------------|

E|-----------------------------------------------------------------|
B|-----------------------------------------------------------------|
G|-15p13-----------------------------------------------------------|
D|-------15p13-----------------------------------------------------|
A|-------------15--------------------------------------------------|
E|-----------------------------------------------------------------|

E|----13h16p13----13h18p16----13h16p13----13h18p16----13h16p13-----|
B|-16----------16----------16----------16----------16--------------|
G|-----------------------------------------------------------------|
D|-----------------------------------------------------------------|
A|-----------------------------------------------------------------|
E|-----------------------------------------------------------------|

E|----13h18p13----13h16p16----13h18p13-----------------------------|
B|-16----------16----------16----------16-18-----------------------|
G|-----------------------------------------------------------------|
D|-----------------------------------------------------------------|
A|-----------------------------------------------------------------|
E|-----------------------------------------------------------------|


E|----16-18-18/-18/-20p18p16----16---------------------------------|
B|-18------------------------18----18-16h18-18p16----16------------|
G|------------------------------------------------17------13-15-13-|
D|-----------------------------------------------------------------|
A|-----------------------------------------------------------------|
E|-----------------------------------------------------------------|

E|-----------------------------------------------------------------|
B|-----------------------------------------------------------------|
G|------------13--------15--------13h15p13----13-------------------|
D|-15---13h15-----15p13-----13h15----------15----15p13h15-13-------|
A|-----------------------------------------------------------------|
E|-----------------------------------------------------------------|

E|-----------------------------------------------------------------|
B|-13-14-16p14p13----13--------------------------------------------|
G|----------------15----15p13p12-13p12-----------------------------|
D|-------------------------------------15p13-15p13-----------------|
A|-------------------------------------------------16p15-----------|
E|-------------------------------------------------------13h16-----|

E|-----------------------------------------------------------------|
B|-----------------------------------------------------------------|
G|-----------------------------------------------------------------|
D|-----------------------------------------------------------------|
A|-13h15-13--------------------------------------------------------|
E|----------16-13--------------------------------------------------|
Добавлено: 29.06.2013
Другие материалы по этой песне:
  • Аккорды и текст

Страница создана 29.06.2013
http://primanota.ru/misc-unsigned-bands/stikki-fingers-4-letter-love-chords.htm
Привет, Гость.
Предлагаем пройти революционный курс по гитаре.
Подарок от PrimaNota.Ru, забирай!