PrimaNota.ru - самый крупный в мире бесплатный архив песенных текстов, аккордов, табулатур и нот


Misc Unsigned Bands - Stereo Skyline - Heartbeat - таба, бас-таба, видео

Регистрация Запомнить меня
Войти через:  Facebook Google Twitter Vk Yandex Mail.ru

Misc Unsigned Bands - Stereo Skyline - Heartbeat - таба, бас-таба, видео

Печатать
Просмотров: 93
------------------------------------------------------------------------
                       Heartbeat - Stereo Skyline
------------------------------------------------------------------------
Tabbed by: guyalexanderr
Email: guy-alexander@hotmail.co.uk

As if no ones tab'd any stereo skyline yet

Anyway this tab has been made from watching this
http://youtube.com/watch?v=Jyp6jMV_1H4
http://youtube.com/watch?v=M3VleEVV1FY and the version thats on there myspace
it's pretty accurate
just listen to the song and you'll get it

**update
-rhythm of chorus changed
-added synth notes (bottem of page)
-added guitar 2

Tuning: stardard

intro/chorus 0:02-0:13
e|------------------------------------------|
B|------------------------------------------|
G|-------5x8---------------------5x8--------|
D|-3x8---5-----7x8---5x8---3x8---5-----7x8--|
A|-3-----3-----7-----5-----3-----3-----7----|
E|-1-----------5-----3-----1-----------5----|
   .     .     .     .     .     .     .

synth breakdown 0:15-0:26
e|-----------------------------------------------------|
B|-----------------------------------------------------|
G|-------------5-5-5--5-5------------------------------|
D|-3-3-3--3-3--5-5-5--5-5--7-7-7--7-7--5--5--5-5-5--5--|
A|-3-3-3--3-3--3-3-3--3-3--7-7-7--7-7--5--5--5-5-5--5--|
E|-1-1-1--1-1--------------5-5-5--5-5--3--3--3-3-3--3--|

e|-------------------------------------------------|
B|-------------------------------------------------|
G|-------------5-5-5--5-5--------------------------|
D|-3-3-3--3-3--5-5-5--5-5--7-7-7--7-7--5-5-5--5-5--|
A|-3-3-3--3-3--3-3-3--3-3--7-7-7--7-7--5-5-5--5-5--|
E|-1-1-1--1-1--------------5-5-5--5-5--3-3-3--3-3--|


verse 0:27-0:37
e|-------------------------|x2
B|-------------------------|
G|--------------5x8--------|
D|-3-3-3--3x8---5-----7x8--|
A|-3-3-3--3-----3-----7----|
E|-1-1-1--1-----------5----|
          .     .     .

pre-chorus 0:38-0:49
guitar 1

e|-------------------------------------------------|
B|-------------------------------------------------|
G|-------------5-5-5--5-5--------------------------|
D|-3-3-3--3-3--5-5-5--5-5--7-7-7--7-7--5-5-5--5-5--|
A|-3-3-3--3-3--3-3-3--3-3--7-7-7--7-7--5-5-5--5-5--|
E|-1-1-1--1-1--------------5-5-5--5-5--3-3-3--3-3--|

e|----------------------------------|
B|----------------------------------|
G|-------------5-5-5--5-5-----------|
D|-3-3-3--3-3--5-5-5--5-5--5--5--5--|
A|-3-3-3--3-3--3-3-3--3-3--5--5--5--|
E|-1-1-1--1-1--------------3--3--3--|

guitar 2

e|-3x25---3x3--|
B|-5------3----|
G|-5------4----|
D|-5------5----|
A|-3------5----|
E|--------3----|


chorus 0:50-1:04
e|------------------------|x2
B|------------------------|
G|-------5x8--------------|
D|-3x8---5-----7x8---5x8--|
A|-3-----3-----7-----5----|
E|-1-----------5-----3----|

e|--------|
B|--------|
G|--------|
D|-3-3-3--|
A|-3-3-3--|
E|-1-1-1--|


verse 1:05-1:17
e|-------------------------|x2
B|-------------------------|
G|--------------5x8--------|
D|-3-3-3--3x8---5-----7x8--|
A|-3-3-3--3-----3-----7----|
E|-1-1-1--1-----------5----|
          .     .     .

pre-chorus2 1:18-1:28
guitar 1

e|------------------------------------------------------|
B|------------------------------------------------------|
G|------------------------------------------------------|
D|-3-3-3----3-3-3-3/7-7-7----5-5-5----3-3-3----5--5--5--|
A|-3-3-3----3-3-3-3/7-7-7----5-5-5----3-3-3----5--5--5--|
E|-1-1-1----1-1-1-1/5-5-5----3-3-3----1-1-1----3--3--3--|

guitar 2

e|-3x25---3x3--|
B|-5------3----|
G|-5------4----|
D|-5------5----|
A|-3------5----|
E|--------3----|

chorus 1:29-1:53
e|------------------------|x4
B|------------------------|
G|-------5x8--------------|
D|-3x8---5-----7x8---5x8--|
A|-3-----3-----7-----5----|
E|-1-----------5-----3----|


synth breakdown 1:54-2:12 
e|-----------------------------------------------------|
B|-----------------------------------------------------|
G|-------------5-5-5--5-5------------------------------|
D|-3-3-3--3-3--5-5-5--5-5--7-7-7--7-7--5--5--5-5-5--5--|
A|-3-3-3--3-3--3-3-3--3-3--7-7-7--7-7--5--5--5-5-5--5--|
E|-1-1-1--1-1--------------5-5-5--5-5--3--3--3-3-3--3--|

e|-------------------------------------------------|x2
B|-------------------------------------------------|
G|-------------5-5-5--5-5--------------------------|
D|-3-3-3--3-3--5-5-5--5-5--7-7-7--7-7--5-5-5--5-5--|
A|-3-3-3--3-3--3-3-3--3-3--7-7-7--7-7--5-5-5--5-5--|
E|-1-1-1--1-1--------------5-5-5--5-5--3-3-3--3-3--|


drum breakdown


chorus 2:17-2:43
e|------------------------|x3
B|------------------------|
G|-------5x8--------------|
D|-3x8---5-----7x8---5x8--|
A|-3-----3-----7-----5----|
E|-1-----------5-----3----|

e|----------------------|
B|----------------------|
G|-------5x8------------|
D|-3x8---5-----5--5--5--|
A|-3-----3-----5--5--5--|
E|-1-----------3--3--3--|



Notes on synth (for anyone thats interested)

synth breakdown

G C D G E D E D C C G C G C G D E D X2 second time end with a C after the D


chorus 

c G E D x2 second time end with a C after the D



donee.



| .  palm mute
| /  slide up
| \  slide down
| h  hammer-on
| p  pull-off
| ~  vibrato
| +  harmonic
| x  Mute note
Добавлено: 01.10.2013
Другие материалы по этой песне:
  • Аккорды и текст

Страница создана 01.10.2013
http://primanota.ru/misc-unsigned-bands/stereo-skyline-heartbeat-chords.htm
Привет, Гость.
Предлагаем пройти революционный курс по гитаре.
Подарок от PrimaNota.Ru, забирай!