PrimaNota.ru - самый крупный в мире бесплатный архив песенных текстов, аккордов, табулатур и нот


Misc Unsigned Bands - State Of Error - Paperweight - таба

Регистрация Запомнить меня
Войти через:  Facebook Google Twitter Vk Yandex Mail.ru

Misc Unsigned Bands - State Of Error - Paperweight - таба

Печатать
Просмотров: 35
Search 'state of error - Paperweight'
in youtube/Google to listen to Paperweight free,
or Buy Paperweight or other tracks from the old E.P.

/     = Slide up
x     = Mute String
PM    = Palm Mute
/(11) = Slide to fret in bracket but dont strum note in bracket


Intro

  Guitar 1
                                     X5
E|-----------------------------------|-----------------------------------|
B|-----------------------------------|-----------------------------------|
G|-----------------------------------|-----------------------------------|
D|------7-7-5-5-4-4-5-5-4-4-----4-4--|------7-7-5-5-4-4-5-5-7-7-5-5-4-4--|
A|--5-5---------------------7-7------|--5-5------------------------------|
E|-----------------------------------|-----------------------------------|


  -----------------------------------------------------------------------|
  -----------------------------------------------------------------------|
  -----------------------------------------------------------------------|
  ------7-7-5-5-4-4-5-5-4-4-----4-4--------------------------------------|
  --5-5---------------------7-7------7-7-7-5-5-5-5-5-5-5-5-5-5-5-5-5-5---|
  -----------------------------------------------------------------------|

  Guitar 2
       x3                                                            X2
  ----|--------------------|----------------------------------------|----|
  ----|--------------------|----------------------------------------|----|
  -7--|--77-777-777-777-7--|--77777777------------------------------|--7-|
  -7--|--------------------|--77777777-77777777-55555555-9999-7777--|--7-|
  -5--|--55-555-555-555-5--|--55555555-77777777-55555555-9999-7777--|--5-|
  ----|--------------------|-----------55555555-33333333-7777-5555--|----|


Verses
                                            x4
  ------------------------------------------|----|
  ------------------------------------------|----|
  --77777777---------------------4-44-7-77--|----|
  --77777777-77777777--5-55-7-77-4-44-7-77--|----|
  --55555555-77777777--5-55-7-77-2-22-5-55--|----|
  -----------55555555--3-33-5-55------------|----|
   |_______PM________|

Chorus
                              x3
  ----------------------------|----------------------------------|
  ----------------------------|----------------------------------|
  --44444--------77777777777--|--44444---------------------------|
  --44444-555555-77777777777--|--44444-555555--7777777777777777--|
  --22222-555555-55555555555--|--22222-555555--7777777777777777--|
  --------333333--------------|--------333333--5555555555555555--|


Bridge

  Guitar 1

  --------------------------------------------------------------------------|
  --------------------------------------------------------------------------|
  --------------------------------------------------------------------------|
  ------7-7-5-5-4-4-5-5-4-4-----4-4-----7-7-5-5-4-4-5-5-7-7-5-5-4-4-----7-7-|
  --5-5---------------------7-7-----5-5-----------------------------5-5-----|
  --------------------------------------------------------------------------|


  -------------------------------------------------------------------------|
  -------------------------------------------------------------------------|
  -------------------------------------------------------------------------|
  -5-5-4-4-5-5-4-4-----4-4-------------------------------------------------|
  -----------------7-7------7-7-7-5-5-5-5-5-/-17-17-17-17-17-17-17-17-17---|
  -------------------------------------------------------------------------|


  Guitar 2
                                          X2
  ----------------------------------------|----|
  ----------------------------------------|----|
  --77777777------------------------------|--7-|
  --77777777-77777777-55555555-9999-7777--|--7-|
  --55555555-77777777-55555555-9999-7777--|--5-|
  -----------55555555-33333333-7777-5555--|----|


Verse 2
Chorus

Interlude

  Guitar 1
                                    x4
  ----------------------------------|--|
  ----------------------------------|--|
  --7-7--9-9-9--11-11-11--12-12-11--|--|
  ----------------------------------|--|
  --5-5--7-7-7--9--9--9---10-10-9---|--|
  ----------------------------------|--|

                                            x3
  ------------------------------------------|--|
  ------------------------------------------|--|
  --19-19-19--14-14-14--12-12-12--11-11-11--|--|
  ------------------------------------------|--|
  --17-17-17--12-12-12--10-10-10--9--9--9---|--|
  ------------------------------------------|--|


  -------------------------------------------|
  -------------------------------------------|
  --7-7-7--9-9-9--11-11----11----11----11----|
  -------------------------------------------|
  --5-5-5--7-7-7--9--9-----9-----9-----9-----|
  -------------------------------------------|

  Guitar 2

  -------------------------------------------------------------|
  -------------------------------------------------------------|
  --77-x-777-x-777-x-777-x-------------------------------------|
  --77-x-777-x-777-x-777-x-777-x-777-x-777-x-777-x-555-x-555-x-|
  --55-x-555-x-555-x-555-x-777-x-777-x-777-x-777-x-555-x-555-x-|
  -------------------------555-x-555-x-555-x-555-x-333-x-333-x-|

                                x2
  ------------------------------|----|
  ------------------------------|----|
  ------------------------------|----|
  -555-x-555-x-999999-777777----|----|
  -555-x-555-x-999999-777777----|----|
  -333-x-333-x-777777-555555----|----|

End Chorus

  Guitar 1
                                            x3
  ------------------------------------------|------------------|
  ------------------------------------------|------------------|
  --7--9--7--9/(11)--9--11/(12)-11-12/(14)--|--7--9--7--9/(11)-|
  ------------------------------------------|------------------|
  ------------------------------------------|------------------|
  ------------------------------------------|------------------|


  ----------------------------------------------|--|
  ----------------------------------------------|--|
  -9999-7777-6666-------------------------------|--|
  ----------------7777-5555---------------------|--|
  --------------------------7/(9)999-7777-------|--|
  ----------------------------------------5555--|--|

                                            x3
  ------------------------------------------|------------------|
  ------------------------------------------|------------------|
  --7--9--7--9/(11)--9--11/(12)-11-12/(14)--|--7--9--7--9/(11)-|
  ------------------------------------------|------------------|
  ------------------------------------------|------------------|
  ------------------------------------------|------------------|


  -------------------------------------------------------------------------|
  -------------------------------------------------------------------------|
  -9999-7777-6666------------------------------9999-7777-6666---------7----|
  ----------------7777-5555-----------------------------------7777----7----|
  --------------------------7/(9)999-7777-----------------------------5----|
  ----------------------------------------5555-----------------------------|

  Guitar 2
                              x3
  ----------------------------|--------------------------------------------|
  ----------------------------|--------------------------------------------|
  --44444--------77777777777--|--44444-------------------------------------|
  --44444-555555-77777777777--|--44444-555555--777777777777777777777777777-|
  --22222-555555-55555555555--|--22222-555555--777777777777777777777777777-|
  --------333333--------------|--------333333--555555555555555555555555555-|

                                       x3
  --------|----------------------------|-----------------------------------|
  --------|----------------------------|-----------------------------------|
  --------|--44444--------77777777777--|-----------------------------------|
  -77777--|--44444-555555-77777777777--|--77777777777777777777777777777777-|
  -77777--|--22222-555555-55555555555--|--77777777777777777777777777777777-|
  -55555--|--------333333--------------|--55555555555555555555555555555555-|


  --------------------------------------|
  --------------------------------------|
  ---------------------7----------------|
  -7777777777777777----7----------------|
  -7777777777777777----5----------------|
  -5555555555555555---------------------|


Enjoy :D
Добавлено: 21.11.2013
Другие материалы по этой песне:
  • Аккорды и текст

Страница создана 21.11.2013
http://primanota.ru/misc-unsigned-bands/state-of-error-paperweight-chords.htm
Привет, Гость.
Предлагаем пройти революционный курс по гитаре.
Подарок от PrimaNota.Ru, забирай!