PrimaNota.ru - самый крупный в мире бесплатный архив песенных текстов, аккордов, табулатур и нот


Misc Unsigned Bands - State Of Error - Forever Waiting - таба, видео

Регистрация Запомнить меня
Войти через:  Facebook Google Twitter Vk Yandex Mail.ru

Misc Unsigned Bands - State Of Error - Forever Waiting - таба, видео

Печатать
Просмотров: 62
Уроки эстрадного вокала в Санкт-Петербурге
Search 'State Of Error - Forever Waiting'
in youtube/Google to listen to it for free!!!!,
Buy Forever Waiting and other tracks on iTunes & Tesco Digital
facebook.com/stateoferror
youtube.com/stateoferror

PM      = Palm Mute
x       = Mute Strings
^       = Strum Down
v       = Strum Up
\       = Slide Down

Layout: Intro x2, Bridge 1, Verse 1, Pre-Chrous, Chorus, Bridge 2
Verse 2, Pre- Chorus, Chorus, Middle 8th, Solo, Pre-Chorus
Chorus (Withing End chorus Riff), Ending.


Intro
(Guitar 1)
(Play 1st Riff Twice, But After Each Time Play Alternative Riff Below)
-ALL 'A-STRING' PM, 'D-STRING' OPEN-

                                                          x2
E|--------------------------------------------------------|----|
B|--------------------------------------------------------|----|
G|--------------------------------------------------------|----|
D|---------0------------2-----------4-----5--4------4-----|----|
A|--2--2------2--4--4------4--5--5-----5---------5--------|----|
E|--------------------------------------------------------|----|

After 1st Time Play This...

---------------------------------------------------|----|
---------------------------------------------------|----|
---------------------------------------------------|----|
---------0-----------2-----------4------4------4---|----|
--2--2------2--4--4-----4--5--5------5-----5-------|----|
---------------------------------------------------|----|

After 2nd Time Play This...

---------------------------------------|----|
---------------------------------------|----|
---------------------------------------|----|
---------0------------2-----4--4--4----|----|
--2--2------2--4--4------4--5--5--5----|----|
---------------------------------------|----|


Bridge 1

                                                                                        x2
E|--------------------------------------------------------------------------------------|--|
B|--------------------------------------------------------------------------------------|--|
G|--4--4----4--4----4----3--3----3--3----3----------------------------------------------|--|
D|--4--4----4--4----4----3--3----3--3----3----5--5----5--5----5----7--7----7--7----7----|--|
A|--2--2----2--2----2----1--1----1--1----1----5--5----5--5----5----7--7----7--7----7----|--|
E|--------------------------------------------3--3----3--3----3----5--5----5--5----5----|--|


Verse
Play Intro Riff x2, Then Play This...
(Guitar 1)

                                                                                              x2
E|--------------------------------------------------------------------------------------------|--|
B|--------------------------------------------------------------------------------------------|--|
G|--4--4----6--6--6----7--7--7----7--7--7--7----11--11----9--9--9----7--7--7----7--7--7--7----|--|
D|--x--x----x--x--x----x--x--x----x--x--x--x----x---x-----x--x--x----x--x--x----x--x--x--x----|--|
A|--2--2----4--4--4----5--5--5----5--5--5--5----9---9-----7--7--7----5--5--5----5--5--5--5----|--|
E|--------------------------------------------------------------------------------------------|--|

(Guitar 2)

                                                                                            x2
E|------------------------------------------------------------------------------------------|--|
B|------------------------------------------------------------------------------------------|--|
G|--4--4----6--6--6----7--7--7----7--7--7--7----4--4----6--6--6----7--7--7----7--7--7--7----|--|
D|--x--x----x--x--x----x--x--x----x--x--x--x----x--x----x--x--x----x--x--x----x--x--x--x----|--|
A|--2--2----4--4--4----5--5--5----5--5--5--5----2--2----4--4--4----5--5--5----5--5--5--5----|--|
E|------------------------------------------------------------------------------------------|--|


Pre-Chorus
(Both Guitars)

E|--x----x--x----x--x----x--x--x--x--x--x----x----x--x----x--x----x--x--x--x----0----|----|
B|--x----x--x----x--x----x--x--x--x--x--x----x----x--x----x--x----x--x--x--x----0----|----|
G|--x----x--x----x--x----x--x--x--x--x--x----x----x--x----x--x----x--x--x--x----0----|----|
D|--x----x--x----x--x----x--x--x--x--x--x----x----x--x----x--x----x--x--x--x----0----|----|
A|--x----x--x----x--x----x--x--x--x--x--x----x----x--x----x--x----x--x--x--x----0----|----|
E|--x----x--x----x--x----x--x--x--x--x--x----x----x--x----x--x----x--x--x--x----0----|----|
    ^    ^  v    ^  v    ^  v  ^  v  ^  v

Chorus


E|--------------------------------------------------------------------------------------------|---|
B|--------------------------------------------------------------------------------------------|---|
G|----------------------7---------4-----------------------------7---------6--7--------9--------|--|
D|--4---------7---------7--(x16)--4--(x16)--4---------7---------7--(x13)--6--7--(x8)--9--(x7)--|--|
A|--4--(x16)--7--(x16)--5---------2---------4--(x16)--7--(x16)--5---------4--5--------7--------|--|
E|--2---------5-----------------------------2---------5----------------------------------------|--|


Bridge 2 (Same As Bridge 1, But PM)
Verse 2
Pre-Chorus
Chorus


Bridge 3

                                                                                              x4
E|--------------------------------------------------------------------------------------------|----|
B|--------------------------------------------------------------------------------------------|----|
G|--11--11---11--11---11---10--10---10--10---10-----------------------------------------------|----|
D|--11--11---11--11---11---11--11---11--11---11---12--12---12--12---12---9--9----9--9----9----|----|
A|--9---9----9---9----9----8---8----8----8----8---12--12---12--12---12---9--9----9--9----9----|----|
E|------------------------------------------------10--10---10--10---10---7--7----7--7----7----|----|


Solo


E|--------------------------------------------------------------------------------------------------|
B|--------------------------------------------------------------------------------------------------|
G|--------------------------------------------------------------------------------------------------|
D|--------------------------------------------------------------------------------------------------|
A|--------------------------------------------------------------------------------------------------|
E|--2--2--2--2--2--2--2--2--2--2--2--2--2--4--4--4--4--5--5--5--5--5--5--5--5--5--5--5--5--5--5--5--|


--------------------------------------------------------------------------------------------------|
--------------------------------------------------------------------------------------------------|
--------------------------------------------------------------------------------------------------|
--------------------------------------------------------------------------------------------------|
-----------------------------------------------------5--5--5--5--5--5--5--5--5--5--5--5--5--5--5--|
--2--2--2--2--2--2--2--2--2--2--2--2--2--0--0--0--0-----------------------------------------------|


--------------------------------------------------------------------------------------------------|
--------------------------------------------------------------------------------------------------|
--------------------------------------------------------------------------------------------------|
--------------------------------------------------------------------------------------------------|
--0--0--0--0--0--0--0--0--0--0--0--0--0--2--2--2--2--4--4--4--4--4--4--4--4--4--4--4--4--4--4--4--|
--2--2--2--2--2--2--2--2--2--2--2--2--2--4--4--4--4--5--5--5--5--5--5--5--5--5--5--5--5--5--5--5--|


-----------------------------------------------------------------------------------------------|--|
-----------------------------------------------------------------------------------------------|--|
-----------------------------------------------------------------------------------------------|--|
-----------------------------------------6--6--6--6--4--4--4--4--4--4--4--4--6--6--6--6--6--6--|--|
--0--0--0--0--0--0--0--0--0--0--0--0--0--------------5--5--5--5--5--5--5--5--7--7--7--7--7--7--|--|
--2--2--2--2--2--2--2--2--2--2--2--2--2--0--0--0--0--------------------------------------------|--|


Pre-Chours
Chorus


Chorus End Octaves


E|--------------------------------------------------------------------------------------------------|
B|--------------------------------------------------------------------------------------------------|
G|--11------------9-------------7-------------4--------------11------------13------------9----------|
D|--x----(x16)----x----(x16)----x----(x16)----x----(x16)-----x----(x13)----x-----(x3)----x----(x16)-|
A|--9-------------7-------------5-------------2--------------9-------------11------------7----------|
E|--------------------------------------------------------------------------------------------------|


----------------------------------------------------|----|
----------------------------------------------------|----|
--16-------------18-------------19------------21----|----|
---x----(x8)-----x-----(x8)-----x----(x8)-----x-----|----|
--14-------------16-------------17------------19----|----|
----------------------------------------------------|----|


Ending


E|-------------------------------------------------------------------------------------------|----|
B|-------------------------------------------------------------------------------------------|----|
G|-------------------------------------------------------------------------------------------|----|
D|--4--4--x--4--4--x--4--x--4--4--x--4--4--x--4--x--4--4--x--4--4--x--4--x--4---4--4---------|----|
A|--4--4--x--4--4--x--4--x--4--4--x--4--4--x--4--x--4--4--x--4--4--x--4--x--4---4--4---------|----|
E|--2--2--x--2--2--x--2--x--2--2--x--2--2--x--2--x--2--2--x--2--2--x--2--x--2---2--2----\----|----|
                                                                               |_PM_|


TABS By,
TomJayZen...

twitter.com/tomjayzen
facebook.com/tompartyka
Добавлено: 29.07.2013
Другие материалы по этой песне:
  • Аккорды и текст

Страница создана 29.07.2013
http://primanota.ru/misc-unsigned-bands/state-of-error-forever-waiting-chords.htm
Привет, Гость.
Предлагаем пройти революционный курс по гитаре.
Подарок от PrimaNota.Ru, забирай!