PrimaNota.ru - самый крупный в мире бесплатный архив песенных текстов, аккордов, табулатур и нот


Misc Unsigned Bands - State Of Error - Antisceen - таба

Регистрация Запомнить меня
Войти через:  Facebook Google Twitter Vk Yandex Mail.ru

Misc Unsigned Bands - State Of Error - Antisceen - таба

Печатать
Просмотров: 34
Search 'state of error - Antisceen'
in youtube/Google to listen to Antisceen free,
or Buy Antisceen or other tracks from the old E.P.

/     = Slide up
PM    = Palm Mute
/(9)  = Slide to fret in brackets but don't strum


Intro
                      x16
E|--------------------|----|
B|--------------------|----|
G|--11--11--9---9-----|----|
D|--11--11--11--11----|----|
A|--------------------|----|
E|--------------------|----|
       |PM|    |__|
                                                                      x2
  --------------------------------------------------------------------|----|
  --------------------------------------------------------------------|----|
  --------------------------------------------------------------------|----|
  --------------------------------------------------------------------|----|
  ------7---7-9-------7---7-/(9)---------7---7-9-------7-------9------|----|
  --9-9---9-----7-5-5---5-------7----9-9---9-----7-5-5---5-7-7---7----|----|


Verses

  ------------------------------------------------------------------------|
  ------------------------------------------------------------------------|
  ------------------------------------------------------------------------|
  --11-11--11-11-11-11-11-11-11-11-11-11--9-9-9-7-7--7-7-7-7-7-7-7-7-7-7--|
  --11-11--11-11-11-11-11-11-11-11-11-11--9-9-9-7-7--7-7-7-7-7-7-7-7-7-7--|
  --9--9---9--9--9--9--9--9--9--9--9--9---7-7-7-5-5--5-5-5-5-5-5-5-5-5-5--|
          |____________PM______________|            |___________________|

  ---------------------------------------------------------|
  ---------------------------------------------------------|
  ---------------------------------------------------------|
  --9-9-9-11-11--11-11-11-11-11-11-11-11-11-11--9-9-9-7-7--|
  --9-9-9-11-11--11-11-11-11-11-11-11-11-11-11--9-9-9-7-7--|
  --7-7-7-9--9---9--9--9--9--9--9--9--9--9--9---7-7-7-5-5--|
                |_____________________________|
                          X2
  ------------------------|----|
  ------------------------|----|
  ------------------------|----|
  --7-7-7-7-7--6-6-9-9----|----|
  --7-7-7-7-7--6-6-9-9----|----|
  --5-5-5-5-5--4-4-7-7----|----|
   |_________|

Chorus

  Guitar 1 (Both guitars for 1st chorus)
                                                                x4
  --------------------------------------------------------------|----|
  --------------------------------------------------------------|----|
  --------------------------------------------------------------|----|
  --11--11--11--11--11--11--11--11--11-7-7-7-7-7-7-6-6-6-6-6-6--|----|
  --11--11--11--11--11--11--11--11--11-7-7-7-7-7-7-6-6-6-6-6-6--|----|
  --9---9---9---9---9---9---9---9---9--5-5-5-5-5-5-4-4-4-4-4-4--|----|

  Guitar 2 (2nd and 3rd Chorus)

  ------------------------------------------------------------|
  ------------------------------------------------------------|
  -------------------------------------9-9-9-9-9-9--8-8--5-5--|
  --11--11--11--11--11--11--11--11--11------------------------|
  --11--11--11--11--11--11--11--11--11-7-7-7-7-7-7--6-6--3-3--|
  --9---9---9---9---9---9---9---9---9-------------------------|

                                                                 x2
  ---------------------------------------------------------------|----|
  ---------------------------------------------------------------|----|
  -------------------------------------9-9-9-9-9-9--8-8--11-11---|----|
  --11--11--11--11--11--11--11--11--11---------------------------|----|
  --11--11--11--11--11--11--11--11--11-7-7-7-7-7-7--6-6--9--9----|----|
  --9---9---9---9---9---9---9---9---9----------------------------|----|


Bridge

  ----------------------------------------------------------------------|
  ----------------------------------------------------------------------|
  ----------------------------------------------------------------------|
  --4-4-4-4-4-4-4-4-4-4-4-4-4-4-4-4-6-6-6-6-6-6-6-6-6-------------------|
  --4-4-4-4-4-4-4-4-4-4-4-4-4-4-4-4-6-6-6-6-6-6-6-6-6-------------------|
  --2-2-2-2-2-2-2-2-2-2-2-2-2-2-2-2-4-4-4-4-4-4-4-4-4--5-4-0-7-5-4-0----|


Verse 2
Chorus 2

Solo

  Guitar 1
                               x2
  -----------------------------|----|
  -----------------------------|----|
  ----9----8----6--------------|----|
  -------------------6----7----|----|
  -----------------------------|----|
  -----------------------------|----|

  Guitar 2
  (Plays 2nd time around to harmonise)

  ---------------------------------|
  ---------------------------------|
  ----13----11----9----------------|
  ---------------------11----13----|
  ---------------------------------|
  ---------------------------------|


Bridge
Chorus

Ending Riff
                    x3
  ------------------|-------------------------|
  ------------------|-------------------------|
  --11--11--9---9---|--4--4--5--5--6--6--6----|
  --11--11--11--11--|--6--6--6--6--6--6--6----|
  ------------------|-------------------------|
  ------------------|-------------------------|
       |__|    |__|      |_|   |_|
Добавлено: 05.10.2013
Другие материалы по этой песне:
  • Аккорды и текст

Страница создана 05.10.2013
http://primanota.ru/misc-unsigned-bands/state-of-error-antisceen-chords.htm
Привет, Гость.
Предлагаем пройти революционный курс по гитаре.
Подарок от PrimaNota.Ru, забирай!