PrimaNota.ru - самый крупный в мире бесплатный архив песенных текстов, аккордов, табулатур и нот


Misc Unsigned Bands - Spicy Mojo - Living Canvas - таба

Регистрация Запомнить меня
Войти через:  Facebook Google Twitter Vk Yandex Mail.ru

Misc Unsigned Bands - Spicy Mojo - Living Canvas - таба

Печатать
Просмотров: 117
Уроки эстрадного вокала в Санкт-Петербурге
legend
Slide up (/)
Slide Down (\)
Tap (t)
Hammer on (h)
Pull-off (p)
------------------------------------------------------------------------------------
Living Canvas - Spicy Mojo From the EP "Welcome to the Masquerade"
Guitar One (Joe Carson) - Intro
eb----------------------------------------------------------------
Bb-5-5-7-5-7-5-5-7-5-5-7-5-7-5-5-7-5-5-5-4-4-4-5-4-4-5-4-4-5-4-4-5
Gb-6-6-6-6-6-6-6-6-4-4-4-4-4-4-4-4-2-2-2-2-2-2-2-2-2-2-2-2-2-2-2-2
Db----------------------------------------------------------------
Ab----------------------------------------------------------------
Eb----------------------------------------------------------------

eb----------------------------------------------------------------
Bb-5-5-7-5-7-5-5-7-5-5-7-5-7-5-5-7-5-5-5-4-4-4-5-4-4-5-4-4-5-4-4-5
Gb-6-6-6-6-6-6-6-6-4-4-4-4-4-4-4-4-2-2-2-2-2-2-2-2-2-2-2-2-2-2-2-2
Db----------------------------------------------------------------
Ab----------------------------------------------------------------
Eb----------------------------------------------------------------

eb----------------------------------------------------------------
Bb-5-5-7-5-7-5-5-7-5-5-7-5-7-5-5-7-5-5-5-4-4-4-5-4-4-5-4-4-5-4-4-5
Gb-6-6-6-6-6-6-6-6-4-4-4-4-4-4-4-4-2-2-2-2-2-2-2-2-2-2-2-2-2-2-2-2
Db----------------------------------------------------------------
Ab----------------------------------------------------------------
Eb----------------------------------------------------------------

eb----------------------------------------------------------------
Bb-5-5-7-5-7-5-5-7-5-5-7-5-7-5-5-7-5-5-5-4-4-4-5-4-4-5-4-4-5-4-4-5
Gb-6-6-6-6-6-6-6-6-4-4-4-4-4-4-4-4-2-2-2-2-2-2-2-2-2-2-2-2-2-2-2-2
Db----------------------------------------------------------------
Ab----------------------------------------------------------------
Eb----------------------------------------------------------------

Verse p1
eb-0----0----0---0-0---0---0--0-0----0--------0-----0-------0-----0----
Bb-0----0----5---4-0---7---2--0-0----0------0-----0---0-------0-----0--
Gb-6----4-----------------------6----4----4-----6-------6/9-----8-----8
Db-6----4-----------------------6----4---------------------------------
Ab-4----2-----------------------4----2---------------------------------
Eb-x----x-----------------------x----x---------------------------------

Verse P2---- LISTEN FOR TIMING!--------------------------------------
eb-x----x-----------------------------------------------------------------
Bb-x----x----7p0h5p0h4p0h5p0h7p0h5p0h4p0h5p0h7p0h5p0h4p0h5p0h7p0h5p0h4p0h5
Gb-6----4-----------------------------------------------------------------
Db-6----4-----------------------------------------------------------------
Ab-4----2-----------------------------------------------------------------
Eb-x----x-----------------------------------------------------------------

eb-x----x--------0-----0-------0-----0----
Bb-x----x------0-----0---0-------0-----0--
Gb-6----4----4-----6-------6/9-----8-----8
Db-6----4---------------------------------
Ab-4----2---------------------------------
Eb-x----x---------------------------------

Pre Chorus
eb-x--x-x-x-x--x-x-x-x--x-x-x--x--x--x--x-
Bb-x--x-x-x-x--x-x-x-x--x-x-x--x--x--x--x-
Gb-6--6-6/8-8--8-8/9-9--9-9/11-11-11-11-11
Db-6--6-6/8-8--8-8/9-9--9-9/11-11-11-11-11
Ab-4--4-4/6-6--6-6/7-7--7-7/9--9--9--9--9-
Eb-x--x-x-x-x--x-x-x-x--x-x-x--x--x--x--x-


Добавлено: 19.10.2015
Другие материалы по этой песне:
  • Аккорды и текст

Страница создана 19.10.2015
http://primanota.ru/misc-unsigned-bands/spicy-mojo-living-canvas-chords.htm
Привет, Гость.
Предлагаем пройти революционный курс по гитаре.
Подарок от PrimaNota.Ru, забирай!