PrimaNota.ru - самый крупный в мире бесплатный архив песенных текстов, аккордов, табулатур и нот


Misc Unsigned Bands - Souls Set Free - Coma - таба

Регистрация Запомнить меня
Войти через:  Facebook Google Twitter Vk Yandex Mail.ru

Misc Unsigned Bands - Souls Set Free - Coma - таба

Печатать
Просмотров: 73
Guitar 1 Lead
Intro X4
e|---9-----11------12------11---|
b|-7---7/9----9/10----10\9----9-|
g|------------------------------|
d|------------------------------|
a|------------------------------|
d|------------------------------|

Guitar 2- Enters in after the first 2 times
e|-------------------------|
b|-------------------------|
g|---6-----8-----9-----8---|
d|-4---4/6---6/7---7\6---6-|
a|-------------------------|
d|-------------------------|

Guitar 3
e|---------------------|
b|---------------------|
g|---------------------|
d|-4-4x4-6-6x6-7-7x7-6-|
a|-4-4x4-6-6x6-7-7x7-6-|
d|-4-4x4-6-6x6-7-7x7-6-|

VERSE
Guitar 1 X4
e|---9----11-----12-----11---|
b|-7---7/9---9/10---10\9---9-|
g|---------------------------|
d|---------------------------|
a|---------------------------|
d|---------------------------|


Guitar 2 X4
e|---------------------|
b|---------------------|
g|---------------------|
d|-4-4x4-6-6x6-7-7x7-6-|
a|-4-4x4-6-6x6-7-7x7-6-|
d|-4-4x4-6-6x6-7-7x7-6-|


CHORUS-Guitar 1+2 X2
e|-----------------------------------------------------------------|
b|-----------------------------------------------------------------|
g|-----------------------------------------------------------------|
d|-0-0-0-0-0-0-0-0-0-0-0-0-0-0-0-0-4-4-4-4-4-4-4-4-4-4-4-4-4-4-4-4-|
a|-0-0-0-0-0-0-0-0-0-0-0-0-0-0-0-0-4-4-4-4-4-4-4-4-4-4-4-4-4-4-4-4-|
d|-0-0-0-0-0-0-0-0-0-0-0-0-0-0-0-0-4-4-4-4-4-4-4-4-4-4-4-4-4-4-4-4-|

e|-----------------------------------------------------------------|
b|-----------------------------------------------------------------|
g|-----------------------------------------------------------------|
d|-7-7-7-7-7-7-7-7-7-7-7-7-7-7-7-7-6-6-6-6-6-6-6-6-6-6-6-6-6-6-6-6-|
a|-7-7-7-7-7-7-7-7-7-7-7-7-7-7-7-7-6-6-6-6-6-6-6-6-6-6-6-6-6-6-6-6-|
d|-7-7-7-7-7-7-7-7-7-7-7-7-7-7-7-7-6-6-6-6-6-6-6-6-6-6-6-6-6-6-6-6-|


VERSE 2
Guitar 1 X4
e|---9----11-----12-----11---|
b|-7---7/9---9/10---10\9---9-|
g|---------------------------|
d|---------------------------|
a|---------------------------|
d|---------------------------|


Guitar 2 X4
e|---------------------|
b|---------------------|
g|---------------------|
d|-4-4x4-6-6x6-7-7x7-6-|
a|-4-4x4-6-6x6-7-7x7-6-|
d|-4-4x4-6-6x6-7-7x7-6-|

CHORUS-Guitar 1+2 X2
e|-----------------------------------------------------------------|
b|-----------------------------------------------------------------|
g|-----------------------------------------------------------------|
d|-0-0-0-0-0-0-0-0-0-0-0-0-0-0-0-0-4-4-4-4-4-4-4-4-4-4-4-4-4-4-4-4-|
a|-0-0-0-0-0-0-0-0-0-0-0-0-0-0-0-0-4-4-4-4-4-4-4-4-4-4-4-4-4-4-4-4-|
d|-0-0-0-0-0-0-0-0-0-0-0-0-0-0-0-0-4-4-4-4-4-4-4-4-4-4-4-4-4-4-4-4-|

e|-----------------------------------------------------------------|
b|-----------------------------------------------------------------|
g|-----------------------------------------------------------------|
d|-7-7-7-7-7-7-7-7-7-7-7-7-7-7-7-7-6-6-6-6-6-6-6-6-6-6-6-6-6-6-6-6-|
a|-7-7-7-7-7-7-7-7-7-7-7-7-7-7-7-7-6-6-6-6-6-6-6-6-6-6-6-6-6-6-6-6-|
d|-7-7-7-7-7-7-7-7-7-7-7-7-7-7-7-7-6-6-6-6-6-6-6-6-6-6-6-6-6-6-6-6-|



BRIDGE Guitar 1+2 X11 on 12 let open ring
e|---------------------|
b|---------------------|
g|---------------------|
d|---------0---------0-|
a|---------0---------0-|
d|-0-0-0-0-0-0-0-0-0-0-|
PM-.-.-.-.---.-.-.-.---|

CHORUS x4
e|-----------------------------------------------------------------|
b|-----------------------------------------------------------------|
g|-----------------------------------------------------------------|
d|-0-0-0-0-0-0-0-0-0-0-0-0-0-0-0-0-4-4-4-4-4-4-4-4-4-4-4-4-4-4-4-4-|
a|-0-0-0-0-0-0-0-0-0-0-0-0-0-0-0-0-4-4-4-4-4-4-4-4-4-4-4-4-4-4-4-4-|
d|-0-0-0-0-0-0-0-0-0-0-0-0-0-0-0-0-4-4-4-4-4-4-4-4-4-4-4-4-4-4-4-4-|

e|-----------------------------------------------------------------|
b|-----------------------------------------------------------------|
g|-----------------------------------------------------------------|
d|-7-7-7-7-7-7-7-7-7-7-7-7-7-7-7-7-6-6-6-6-6-6-6-6-6-6-6-6-6-6-6-6-|
a|-7-7-7-7-7-7-7-7-7-7-7-7-7-7-7-7-6-6-6-6-6-6-6-6-6-6-6-6-6-6-6-6-|
d|-7-7-7-7-7-7-7-7-7-7-7-7-7-7-7-7-6-6-6-6-6-6-6-6-6-6-6-6-6-6-6-6-|

OUTRO SOLO
Guitar 1
e|----------------------------------------------------|
b|-/11-10-8-------------------------------------------|
g|----------10-9-9h10p9-------9-10/12-12b-10h12p10----|
d|----------------------10-10----------------------12-|
a|----------------------------------------------------|
d|----------------------------------------------------|

e|----------------------------------------------------|
b|-5/11-11-11-11-11\10-10-10-10\8-8-8-6-6/6-5-5h6p5---|
g|--------------------------------------------------7-|
d|----------------------------------------------------|
a|----------------------------------------------------|
d|----------------------------------------------------|

e|--------------------------------------------|
b|-----------/11-11-11-11\10-10\8-t15-8h10h11-|X16 last time bend up
g|-5-5h7p5------------------------------------|
d|---------7----------------------------------|
a|--------------------------------------------|
d|--------------------------------------------|

e|----------------------------|
b|-t15-8h10h11-X8b up-X4b up--|X4bend up X4 bend up 4 times slowly release
g|----------------------------|
d|----------------------------|
a|----------------------------|
d|----------------------------|

Guitar 2 X12

e|---------------------|
b|---------------------|
g|---------------------|
d|---------0---------0-|
a|---------0---------0-|
d|-0-0-0-0-0-0-0-0-0-0-|
PM-.-.-.-.---.-.-.-.---|
Добавлено: 13.11.2013
Другие материалы по этой песне:
  • Аккорды и текст

Страница создана 13.11.2013
http://primanota.ru/misc-unsigned-bands/souls-set-free-coma-chords.htm
Привет, Гость.
Предлагаем пройти революционный курс по гитаре.
Подарок от PrimaNota.Ru, забирай!