PrimaNota.ru - самый крупный в мире бесплатный архив песенных текстов, аккордов, табулатур и нот


Misc Unsigned Bands - Soul Of The Fire - Every Body Dies - таба, видео

Регистрация Запомнить меня
Войти через:  Facebook Google Twitter Vk Yandex Mail.ru

Misc Unsigned Bands - Soul Of The Fire - Every Body Dies - таба, видео

Печатать
Просмотров: 42
band- flames of hell 
song- every body dies

P- pull off                      
W- whammy                        
\- hit note rapidly                
S- slipe                          
H- hamrrom 
 Intro/ chorus
e|----------------------------------------------|
B|----------------------------------------------|
G|----------------------------------------------|
D|----------------------------------------------|  x2
A|--------5-6-5------7-8-7------5-6-5-3W-2-1-2-3|
D|--2-2-2------2-2-2------2-2-2-----------------|

e|------------------------------------------------------------|
B|------------------------------------------------------------|
G|------------------------------------------------------------|
D|------------------------------------------------------------|
A|-------------------------2-2-2-2-2--------------------------|
D|-0-0-0-0-0-0---2-2-2-2-2-----------0-0-0-0-0-0-0-0-0-0-0-0--|


verse 1/repet this hole verse twice in the order 

e|------------------------------------------------------------|
B|------------------------------------------------------------|
G|------------------------------------------------------------|
D|------------------------------------------------------------|
A|---------5-5-5-5-5-------1-1-1-1-1----------0-0-0-0-0-0-1-1-|
D|-3-1-3-1-3--------9-7-9-7---------2-2-2-2-2-0-0-0-0-0-0-1-1-|

e|------------------------------------------------------------|
B|------------------------------------------------------------|
G|------------------------------------------------------------|
D|------------------------------------------------------------|
A|----------0-0-0-0-0-0-------0-0-0-1-------------------------|
D|-1H-1H-1H-0-0-0-0-0-0-0-0-0-0-0-0-1-1-1-1-1-1-1-1-0-0-0-0---|


chorus


e|----------------------------------------------|
B|----------------------------------------------|
G|----------------------------------------------|
D|----------------------------------------------|  x2
A|--------5-6-5------7-8-7------5-6-5-3W-2-1-2-3|
D|--2-2-2------2-2-2------2-2-2-----------------|


e|------------------------------------------------------------|
B|------------------------------------------------------------|
G|------------------------------------------------------------|
D|------------------------------------------------------------|
A|-------------------------2-2-2-2-2--------------------------|
D|-0-0-0-0-0-0---2-2-2-2-2-----------0-0-0-0-0-0-0-0-0-0-0-0--|

                                 
Solo/ playing this solo is like MOTLEY CRUE solos 

e|------------------------------------------------------------|
B|------------------------------------------------------------|
G|----------------------------11-11-11-11-11--------16-16-16--|
D|-12-12-12-12-12-10-10-10-10---------------19-19-19----------| x3
A|------------------------------------------------------------|
D|------------------------------------------------------------|

chorus 

e|----------------------------------------------|
B|----------------------------------------------|
G|----------------------------------------------|
D|----------------------------------------------|  x2
A|--------5-6-5------7-8-7------5-6-5-3W-2-1-2-3|
D|--2-2-2------2-2-2------2-2-2-----------------|


e|------------------------------------------------------------|
B|------------------------------------------------------------|
G|------------------------------------------------------------|
D|------------------------------------------------------------|
A|-------------------------2-2-2-2-2--------------------------|
D|-0-0-0-0-0-0---2-2-2-2-2-----------0-0-0-0-0-0-0-0-0-0-0-0--|

verse 2


e|------------------------------------------------------------|
B|------------------------------------------------------------|
G|------------------------------------------------------------|
D|------------------------------------------------------------|
A|---------5-5-5-5-5-------1-1-1-1-1----------0-0-0-0-0-0-1-1-|
D|-3-1-3-1-3--------9-7-9-7---------2-2-2-2-2-0-0-0-0-0-0-1-1-|

e|-------------------------------------------------|
B|-------------------------------------------------|
D|-------------------------------------------------|
A||--------5-6-5------7-8-7------5-6-5-3W-2-1-2-3=-|
D|--2-2-2------2-2-2------2-2-2--------------------|


Outro 

e|----------------------------------------------|
B|----------------------------------------------|
G|----------------------------------------------|
D|----------------------------------------------|  
A|--------5-6-5------7-8-7------5-6-5-3W-2-1-2-3|
D|--2-2-2------2-2-2------2-2-2-----------------|
as you reach this point fade out
e|----------------------------------------------|
B|----------------------------------------------|
G|----------------------------------------------|
D|----------------------------------------------|  
A|--------5-6-5------7-8-7------5-6-5-3W-2-1-2-3|
D|--2-2-2------2-2-2------2-2-2-----------------|

if you what to add me to msn my user name is 
connortheconmankilla@hotmail.com
Добавлено: 01.10.2013
Другие материалы по этой песне:
  • Аккорды и текст

Страница создана 01.10.2013
http://primanota.ru/misc-unsigned-bands/soul-of-the-fire-every-body-dies-chords.htm
Привет, Гость.
Предлагаем пройти революционный курс по гитаре.
Подарок от PrimaNota.Ru, забирай!