PrimaNota.ru - самый крупный в мире бесплатный архив песенных текстов, аккордов, табулатур и нот


Misc Unsigned Bands - Slam Jam - Were All Together Now - таба, видео

Регистрация Запомнить меня
Войти через:  Facebook Google Twitter Vk Yandex Mail.ru

Misc Unsigned Bands - Slam Jam - Were All Together Now - таба, видео

Печатать
Просмотров: 98
-------------------------------------------------------------------------------------------------------------
                                   SLAM JAM - WE'RE ALL TOGETHER NOW
-------------------------------------------------------------------------------------------------------------
**Tabbed by: Adam Bombardier (Québec)**
**e-mail: adam_bombardier@hotmail.com**

As performed by Slam Jam and WWF Superstars

Slam Jam is: 
Vocals: Jon Oliva (Savatage/Trans-Siberian Orchestra)
Guitar: Scott Ian (Anthrax)
Guitar: Kenny Hickey (Type O Negative)
Bass: Gary Meskil (Crumbsuckers/Pro Pain)
Drums: Tim Mallare (Overkill)


I was tired of not seeing any tabs of this great WWF Attitude Era RAW Intro on the net, so i took care of it.
I'm pretty sure i'm gonna make some people happy right now:) Enjoy!

[Note: I didn't tab the interlude around 2:05 in the song, if someone's willing to do it that'd be great!]
[I'll leave it blank for now...]


Tuning: D#/G#/C#/F#/A#/d# (Half Step Down)

(Intro)
|-----------------------------------------------------------|
|-----------------------------------------------------------|
|-----------------------------------------------------------|
|-----------------------------------------------------------|
|------3-0---4----5-0----------3-0---4------5---------------|
|-0000-1-0-0-2-00-3-0-00000000-1-0-0-2-0000-3---------------|
  ....   p .   ..   p ........   p .   .... [let ring-------]


(Intro Trans.)
|------------------------------------------------|
|------------------------------------------------|
|------------------------------------------------|
|-------------------------------------------8-7--|
|------3-0---4----5-0----------3-0---4------6-5--|
|-0000-1-0-0-2-00-3-0-00000000-1-0-0-2-0000------|
  ....   p .   ..   p ........   p .   ....     


(Verse)
|---------------------------------|-----------------------------|
|---------------------------------|-----------------------------|
|---------------------------------|-----------------------------|
|---------------------------------|-------------------------8-7-|
|-6/7-----------------------------|-6/7---------------------6-5-|
|-4/5-5-5-5-5-5-555-5-5-5-5-5-5-5-|-4/5-5-5-5-5-5-555-5-5-5-----|
      . . . . . ... . . . . . . .       . . . . . ... . . . 


(Verse Alt.)
|---------------------------------|-----------------------------|
|---------------------------------|-----------------------------|
|---------------------------------|-----------------------------|
|---------------------------------|-------------------------8-7-|
|-6/7-----------------------------|-6/7---------------------6-5-|
|-4/5-5-5-5-5-5-555-5-5-5-5-5-5-5-|-4/5-5-5-5-5-5-555-555-5-----|
      . . . . . ... . . . . . . .       . . . . . ... ... .


(Chorus)
|------------------------------------|
|------------------------------------|
|------------------------------------|
|-2-2----2-2----2-2------------------|
|-2-2----2-2----2-2------------------|
|-0-0----0-0----0-0----5-6-5-3-5-3-1-|


(Chorus Trans.)
|------------------------------|
|------------------------------|
|------------------------------|
|-2-2----2-2----2-2------------|
|-2-2----2-2----2-2----7-6-5-4-|
|-0-0----0-0----0-0----8-7-6-5-|


(Chorus Finale)
|--------------------------------------------------------------------|
|--------------------------------------------------------------------|
|--------------------------------------------------------------------|
|-2-2----2-2----2-2-----------------------------------2--------------|
|-2-2----2-2----2-2----7----6----5----4---------------2--------------|
|-0-0----0-0----0-0----8----7----6----5---------------0--------------|
                                      [Let ring......][Let ring......]

(Interlude)
|---------------------------------------------------------------------------|
|---------------------------------------------------------------------------|
|---------------------------------------------------------------------------|
|---------------------------------------------------------------------------|
|---------------------------------------------------------------------------|
|---------------------------------------------------------------------------|


(Chorus END)
|----------------------------------------------------------------|
|----------------------------------------------------------------|
|----------------------------------------------------------------|
|-2-2----2-2----2-2----------------------------------------------|
|-2-2----2-2----2-2----7----6----5----4----7----6----5----4----7-|
|-0-0----0-0----0-0----8----7----6----5----8----7----6----5----8-|
                                    
|-------------------------------------------------------------------|
|-------------------------------------------------------------------|
|-------------------------------------------------------------------|
|--------------------------------------2----------------------------|
|-7-----6-----5-----4------------------2----------------------------|
|-8-----7-----6-----5------------------0----------------------------|
                    [Let ring.........][Let ring....................]


Song Structure:
---------------

*(Intro) 3x
*(Intro Trans.) 1x
*(Verse) 2x
*(Intro Trans.) 1x
*(Verse Alt.) 2x
*(Intro Trans.) 1x
*(Chorus) 2x
*(Chorus Trans.) 1x
*(Intro) 1x
*(Intro Trans.) 1x
*(Verse Alt.) 2x
*(Intro Trans.) 1x
*(Verse Alt.) 2x
*(Intro Trans.) 1x
*(Chorus) 2x
*(Chorus Finale) 1x
*(Interlude) 2x
*(Chorus) 3x

************************************

| /   slide up
| \   slide down
| h   hammer-on
| p   pull-off
| x   Mute note
| .   Palm mute

************************************
Добавлено: 19.10.2015
Другие материалы по этой песне:
  • Аккорды и текст

Страница создана 19.10.2015
http://primanota.ru/misc-unsigned-bands/slam-jam-were-all-together-now-chords.htm
Привет, Гость.
Предлагаем пройти революционный курс по гитаре.
Подарок от PrimaNota.Ru, забирай!