PrimaNota.ru - самый крупный в мире бесплатный архив песенных текстов, аккордов, табулатур и нот


Misc Unsigned Bands - Sky Walker - The Spider - таба

Регистрация Запомнить меня
Войти через:  Facebook Google Twitter Vk Yandex Mail.ru

Misc Unsigned Bands - Sky Walker - The Spider - таба

Печатать
Просмотров: 39
artist: SKY WALKER
album: self-titled
song: The Spider
tabbed by: Yul Vianzon (yulvianzon@yahoo.com)
www.skywalkeronline.com
www.myspace.com/skywalker


Guitar 1 (rhythm)
intro

e---------------------------------------------------------------|
B---------------------------------------------------------------|
G--5-4-x-5-4-x-5-4-x-5-4-x-x-5-4-x-5-4-x--------(triples)-------|
D--5-5-x-5-5-x-5-5-x-5-5-x-x-5-5-x-5-5-x-3-3-x-5-5-5--5-5-5-----|
A--3-3-x-3-3-x-3-3-x-3-3-x-x-----x-----x-3-3-x-5-5-5--5-5-5-----|
E----------------------------------------1-1-x-3-3-3--3-3-3-----|

preverse and verse

e-----------------------------------------------------------------------------------------------------|
B-----------------------------------------------------------------------------------------------------|
G-----------------------------------------------------------------------------------------------------|
D-7--7-7-7-7--7--7/3--3--3-3-3-3--3-3-3/5-5--5-5-5-5--5-5-5--5-5-5-5--5-5-----------------------------|
A-7--7-7-7-7--7--7/3--3--3-3-3-3--3-3-3/5-5--5-5-5-5--5-5-5--5-5-5-5--5-5-----------------------------|
E-5--5-5-5-5--5--5/1--1--1-1-1-1--1-1-1/3-3--3-3-3-3--3-3-3--3-3-3-3--3-3-----------------------------|
     pm.....             pm.....             pm.....         pm.....


("...say to grow up and get out of the past...")
e---------------------------------------------------------------|
B---------------------------------------------------------------|
G---------------------------------------------------------------|
D--7-7-7-7-7-7--3-3-3-3-3-3-3/5--5-5-5-5--5-5--5-5-5-5-5-5------|
A--7-7-7-7-7-7--3-3-3-3-3-3-3/5--5-5-5-5--5-5--5-5-5-5-5-5------|
E--5-5-5-5-5-5--1-1-1-1-1-1-1/3--3-3-3-3--3-3--3-3-3-3-3-3------|

prechorus                    (..you're knees are flithy w/ the dirt...)

e--------------------------|-------------------------------------|
B--------------------------|-------------------------------------|
G--------------------------|-------------------------------------|
D-3-3--5-5--7-7--5-5-------|----3-3--3-3--3~~--------------------|
A-3-3--5-5--7-7--5-5-------|----3-3--3-3--3~~--------------------|
E-1-1--3-3--5-5--3-3-------|----1-1--1-1--1~~--------------------|


chorus

e--x-x--x-x-------x-x------------------------------------------------|
B--x-x--x-x-------x-x------------------------------------------------|
G--x-x--x-x--7-7--x-x------------------------------------------------|
D--4-4--x-x--7-7--2-2------------------------------------------------|
A--4-4--7-7--5-5--2-2------------------------------------------------|
E--2-2--4-4----------------------------------------------------------|


breakdown

e-------------------------|---------|
B-------------------------|---------|
G-----------------5--7----|---------|
D--3~---5~---7~---5--7----|-3~-5~-3-|
A--3~---5~---7~---3--5----|-3~-5~-3-|
E--1~---3~---5~-----------|-1~-3~-1-|


last chorus(key change)

e---------------------------------------------------------------|
B---------------------------------------------------------------|
G---------------------------------------------------------------|
D--6-6-------2-2--4-4-------------------------------------------|
A--6-6--9-9--2-2--4-4-------------------------------------------|
E--4-4--6-6-------2-2-------------------------------------------|


Guitar 2 (lead)


intro

e---------------------------------------------------------------|
B---------------------------------------------------------------|
G--12--12--12--12--12--12-------12------------------------------|
D--10--10--10--10--10--10--9-10----10---------------------------|
A---------------------------------------------------------------|
E---------------------------------------------------------------|

chorus

e-------------------|
B-------------------|
G--14-13--13-13--13-|
D--14-14--14-14--14-|
A-------------------|
E-------------------|

last chorus(key change)

e----------------------------|
B----------------------------|
G--16--15--16-16-15----------|
D--16--16--16-16-16----------|
A----------------------------|
E----------------------------|
Добавлено: 28.08.2013
Другие материалы по этой песне:
  • Аккорды и текст

Страница создана 28.08.2013
http://primanota.ru/misc-unsigned-bands/sky-walker-the-spider-chords.htm
Привет, Гость.
Предлагаем пройти революционный курс по гитаре.
Подарок от PrimaNota.Ru, забирай!