PrimaNota.ru - самый крупный в мире бесплатный архив песенных текстов, аккордов, табулатур и нот


Misc Unsigned Bands - Sky Walker - Orange And Gray Acoustic Version - таба, видео

Регистрация Запомнить меня
Войти через:  Facebook Google Twitter Vk Yandex Mail.ru

Misc Unsigned Bands - Sky Walker - Orange And Gray Acoustic Version - таба, видео

Печатать
Просмотров: 39
artist: SKY WALKER
album: self-titled
song: Orange and gray (acoustic version)
tabbed by: Yul Vianzon (yulvianzon@yahoo.com)
www.skywalkeronline.com
www.myspace.com/skywalker

Guitar 1(lead)

intro
e|------------------------------------------------------------------|
B|-----4---5---7-------4---5---7------4---5---7---5---4--5---4------|
G|-4-----4---4---4-4-----4---4---4-4----4---4---4---4---4--4---4----|
D|---6---------------6--------------6-------------------------------|
A|------------------------------------------------------------------|2x
E|------------------------------------------------------------------|


e|-----------------------------------------------------------------------------------------------|
B|-----------------------------------------------------------------------------------------------|
G|4-4/8-8-8/9-9-9/11--11-4-4/8-8-8/9-9-9/11--11-4-4/8-8-8/9-9-9/11--11/9-9-9/8-8-8/9-9-9/8-8-----|
D|-----------------------------------------------------------------------------------------------|
A|2-2/6-6-6/7-7-7/9---9--2-2/6-6-6/7-7-7/9---9--2-2/6-6-6/7-7-7/9----9/7-7-7/6-6-6/7-7-7/6-6-----|
E|-----------------------------------------------------------------------------------------------|


e|--------------------------------------------------------------------|
B|--------------------------------------------------------------------|
G|4-4/8-8-8/9-9-9/11--11-4-4/8-8-8/9-9-9/11--11-4-4/8-8-8/9-9-9/11--11|
D|--------------------------------------------------------------------|
A|2-2/6-6-6/7-7-7/9---9--2-2/6-6-6/7-7-7/9---9--2-2/6-6-6/7-7-7/9----9|
E|--------------------------------------------------------------------|

e|----------------------------------|
B|----------------------------------|
G|-----8-------11-------13----------|
D|--6-----6--9----9--11----11-------|
A|----------------------------------|
E|----------------------------------|


verse
e|------------------------------------------------------------------|
B|-----4---5---7-------4---5---7------4---5---7---5---4--5---4------|
G|-4-----4---4---4-4-----4---4---4-4----4---4---4---4---4--4---4----|
D|---6---------------6--------------6-------------------------------|
A|------------------------------------------------------------------|
E|------------------------------------------------------------------|


chorus
e|-----------------------------------------------------------------------------------------------------------|
B|-----------------------------------------------------------------------------------------------------------|
G|----------8-9/11------11------11-----11----11---11----11-------11---11---11-------11-----11-----11---------|
D|---9--11----------9-9-----9-9----9-9-----9----9----9-----9-8-8----8----8----8-9-9----9-9----9-9------9-----|
A|-/9--------------------------------------------------------------------------------------------------------|
E|-----------------------------------------------------------------------------------------------------------|

e|----------------------------------------------------------------------------------------------------|
B|----------------------------------------------------------------------------------------------------|
G|-----11-----11------11-----11---11-----11-----11----11-----------11---11---11-----------------------|
D|-9-9----9-9----9-9-----9-9----9----9-9-----11----11----11-11-8-8----8----8-----8--------------------|
A|----------------------------------------------------------------------------------------------------|
E|----------------------------------------------------------------------------------------------------|


bridge ("...i saw through the wave...")

e|------------------------------------------|
B|------------------------------------------|repeat as many times
G|-----11-----11------11-----11---11-----11-|
D|-9-9----9-9----9-9-----9-9----9----9-9----|
A|------------------------------------------|
E|------------------------------------------|


last chorus ("been lifted from the prey..")
e|------------------------------------------------|
B|---------11--12--11-----------------------------|
G|------11------------11--11h13p--11--------------|
D|---13-------------------------------------------|
A|------------------------------------------------|
E|------------------------------------------------|

outro


e|--------------------7-------------------------------------------------|
B|--------------------7-------------------------------------------------|
G|---11-11-11-11--11--9-------------------------------------------------|
D|---11-11-11-11--13----------------------------------------------------|
A|----------------------------------------------------------------------|
E|----------------------------------------------------------------------|





Guitar 2 (rhythm)
intro

e|---------2--------|
B|---0---0---0---0--|
G|-3---3-------3----|
D|------------------|
A|------------------|
E|------------------|

e|-------------------------------------------------------------------------|
B|-------------------------------------------------------------------------|
G|-----------(triples)-----------------------------------------------------|
D|-6--4--2-2--4-4-4-4------------------------------------------------------|
A|-6--4--2-2--4-4-4-4------------------------------------------------------|
E|-4--2-------2-2-2-2------------------------------------------------------|


e|-----------------------------------------------------------------------|
B|-----------------------------------------------------------------------|
G|----------------9-9-9-9-9-9-9---4-4-4-4-4-4-4-4------------------------|
D|--6-6-6--6/---9-9-9-9-9-9-9-9---4-4-4-4-4-4-4-4--4-4-4-4-4-4-4---------|
A|--6-6-6--6/9--6-7-7-7-7-7-7-7---2-2-2-2-2-2-2-2--4-4-4-4-4-4-4---------|
E|--4-4-4--4/7-------------------------------------2-2-2-2-2-2-2---------|


e|-----------------------------------------------------------------------|
B|-----------------------------------------------------------------------|
G|-----------------------------------------------------------------------|
D|--6-6-6-6--4-2-2-2-2-2-2-2-2--4-4-4-4-4-4-4----------------------------|
A|--6-6-6-6--4-2-2-2-2-2-2-2-2--4-4-4-4-4-4-4----------------------------|
E|--4-4-4-4--2------------------2-2-2-2-2-2-2----------------------------|

e|-----------------------------------------------------------------------|
B|-----------------------------------------------------------------------|
G|-----------------------------------------------------------------------|
D|-----------4-------6---------------------------------------------------|
A|---6----2-----2--4---4-------------------------------------------------|
E|-4---4-----------------------------------------------------------------|


verse
e|-------------------------------------------------------------------------|
B|-------------------------------------------------------------------------|
G|----------------4--------------------------------------------------------|
D|---6-6-6-6------4-4-4-4-4-4-4-4-4--2-2-2-2-2-2-2--4-4-4-4-4-4-4-4--------|
A|---6-6-6-6------2-4-4-4-4-4-4-4-4--2-2-2-2-2-2-2--4-4-4-4-4-4-4-4--------|
E|---4-4-4-4--------2-2-2-2-2-2-2-2-----------------2-2-2-2-2-2-2-2--------|


chorus
e|----------------------------------------------------------------------------|
B|----------------------------------------------------------------------------|
G|-----------------------------------------------------------------4-4-4-4-4-4|
D|-2-2-2-2-2-2-2--4/6-6-6--4-4-4-4-4-4--2-2-2-2-2-2-2--4-4-4-4-4-4-4-4-4-4-4-4|
A|-2-2-2-2-2-2-2--4/6-6-6--4-4-4-4-4-4--2-2-2-2-2-2-2--1-1-1-1-1-1-2-2-2-2-2-2|
E|----------------2/4-4-4--2-2-2-2-2-2----------------------------------------|


e|--------------------------------------------------------------------------------------------|
B|--------------------------------------------------------------------------------------------|
G|--------------------------------------------------------------------------------------------|
D|-2-2-2-2-2-2-2--4/6-6-6--4-4-4-4-4-4--2-2-2-2-2-2-2--4-4-4-4-4-4--6-6-6-6-6-6--4-4-4-4-4-4-4|
A|-2-2-2-2-2-2-2--4/6-6-6--4-4-4-4-4-4--2-2-2-2-2-2-2--4-4-4-4-4-4--6-6-6-6-6-6--4-4-4-4-4-4-4|
E|----------------2/4-4-4--2-2-2-2-2-2-----------------2-2-2-2-2-2--4-4-4-4-4-4--1-1-1-1-1-1-1|


bridge
e|-----------------------------------------------------------------------|
B|-----------------------------------------------------------------------|
G|-----------------------------------------------------------------------|
D|-4-6-2---2-2--2-2--4-6-2---2-2--2-2---4-6-2---2-2--2-2---2-2-----------|
A|-4-6-2---2-2--2-2--4-6-2---2-2--2-2---4-6-2---2-2--2-2---2-2-----------|
E|-2-4---------------2-4----------------2-4------------------------------|


e|-----------------------------------------------------------------------|
B|-----------------------------------------------------------------------|
G|-----------------------------------------------------------------------|
D|-4/6-6-6--4/6-6-6---6/4-4-4--2--2--2--2--2--2--2-----------------------|
A|-4/6-6-6--4/6-6-6---6/4-4-4--2--2--2--2--2--2--2-----------------------|
E|-2/4-4-4--2/4-4-4---4/2-2-2--------------------------------------------|


e|--------------------------------------------------------------|
B|--------------------------------------------------------------|
G|-4-4--4-4--4-4--4-4--4-4--4-4--4-4--4-4---4-4--4-4--4-4--4-4--|
D|-4-4--4-4--4-4--4-4--4-4--4-4--4-4--4-4---4-4--4-4--4-4--4-4--|
A|-2-2--2-2--2-2--2-2--2-2--2-2--2-2--2-2---x-x--x-x--x-x--x-x--|
E|------------------------------------------4-4--4-4--4-4--4-4--|


-------------------------|--------------------------------------------------|
-------------------------|--------------------------------------------------|
-------------------------|--------------------------------------------------|
-2-2--2-2--4-4--4-4-(2x)-|---6--4--4--6---2---------------------------------|
-2-2--2-2--4-4--4-4------|---6--4--4--6---2---------------------------------|
-----------2-2--2-2------|---4--1--2--4-------------------------------------|

last chorus and outro ("been lifted from the prey...")


e|--2-2-2-2-2-2-2---4-4-4-4-4-4------------------|-------------x-------------------------|
B|--2-2-2-2-2-2-2---5-5-5-5-5-5------------------|-------------x-------------------------|
G|--2-2-2-2-2-2-2---4-4-4-4-4-4-----1-1-1-1-1--1-|-------------x-------------------------|
D|--4-4-4-4-4-4-4---6-6-6-6-6-6-----2-2-1-1-1--1-|---6-6-6-6-4-2-------------------------|
A|--4-4-4-4-4-4-4---4-4-4-4-4-4-----2-2-2-2-2--2-|---6-6-6-6-4-2-------------------------|
E|--2-2-2-2-2-2-2--------------------------------|---4-4-4-4-2---------------------------|
Добавлено: 05.09.2013
Другие материалы по этой песне:
  • Аккорды и текст

Страница создана 05.09.2013
http://primanota.ru/misc-unsigned-bands/sky-walker-orange-and-gray-acoustic-version-chords.htm
Привет, Гость.
Предлагаем пройти революционный курс по гитаре.
Подарок от PrimaNota.Ru, забирай!