PrimaNota.ru - самый крупный в мире бесплатный архив песенных текстов, аккордов, табулатур и нот


Misc Unsigned Bands - Six Feet From Forever - Taken For Granted - таба, видео

Регистрация Запомнить меня
Войти через:  Facebook Google Twitter Vk Yandex Mail.ru

Misc Unsigned Bands - Six Feet From Forever - Taken For Granted - таба, видео

Печатать
Просмотров: 55
Уроки эстрадного вокала в Санкт-Петербурге
TAKEN FOR GRANTED
by: SIX FEET FROM FOREVER
written by:ERIC COOK
performed by:ERIC COOK & BO ROBERTS

Gtr1
    |----------------------------------------------------------------------|
    |----------------------------------------------------------------------|
    |----------------------------------------------------------------------|
    |---0-2-3-0-3-5-0-5-7-0-7-8-0-8-11-8-0-8-7-0-7-5-0-5-3-0-3-2-0-2-3-2---|
    |----------------------------------------------------------------------|
    |----------------------------------------------------------------------|
    |
Gtr2|
    |----------------------------------------------------------------------|
    |----------------------------------------------------------------------|
    |----------------------------------------------------------------------|
    |----------------------------------------------------------------------|
    |----------------------------------------------------------------------|
    |----------------------------------------------------------------------|


Gtr1
    |----------------------------------------------------------------------|
    |----------------------------------------------------------------------|
    |----------------------------------------------------------------------|
    |---0-2-3-0-3-5-0-5-7-0-7-8-0-8-11-8-0-8-7-0-7-5-0-5-3-0-3-2-0-2-3-2---|
    |----------------------------------------------------------------------|
    |----------------------------------------------------------------------|
    |
Gtr2|                                    .
    |----------------------------------------------------------------------|
    |----------------------------------------------------------------------|
    |----------------------------------------------------------------------|
    |---0~-------------------------------0---------------------------------|
    |---0~-------------------------------0---------------------------------|
    |---0~-------------------------------0---------------------------------|

Gtr1
    |------------------------------------------------------------------------|
    |------------------------------------------------------------------------|
    |------------------------------------------------------------------------|
    |------------------------------------------------------------------------|
    |---0-3-5-0-5-7-0-7-8-0-8-10-0-10-13-10-0-10-8-0-8-7-0-7-5-0-5-3-0-3-5-3-|
    |------------------------------------------------------------------------|
    |
Gtr2|                                                                       X2
    |----------------------------------------------------------------------|
    |----------------------------------------------------------------------|
    |----------------------------------------------------------------------|
    |---0-2-3-0-3-5-0-5-7-0-7-8-0-8-11-8-0-8-7-0-7-5-0-5-3-0-3-2-0-2-3-2---|
    |----------------------------------------------------------------------|
    |----------------------------------------------------------------------|

Gtr1       ... ... ...    ... ... ...    ... ... ...
    |------------------------------------------------|
    |------------------------------------------------|
    |------------------------------------------------|
    |---0--------------0--------------0--------------|
    |---0--------------0--------------0--------------|
    |---0--000-000-000-0--000-000-000-0--000-000-000-|
    |
    |
Gtr2|      ... ... ...    ... ... ...    ... ... ...
    |------------------------------------------------|
    |------------------------------------------------|
    |------------------------------------------------|
    |---0--------------0--------------0--------------|
    |---0--------------0--------------0--------------|
    |---0--000-000-000-0--000-000-000-0--000-000-000-|
    |
    |
    |                . . ... . .
    | ---------------------------|
    | ---------------------------|
    | ---------------------------|
    | 7-7-7-7--2-3\--0-0-----0-0-|
    | 8-8-8-8--3-3\--0-0-----0-0-|
    | 7-7-7-7--2-3\--0-0-000-0-0-|
    |
    |
    |                . . ... . . X2
    | ---------------------------|
    | ---------------------------|
    | ---------------------------|
    | 7-7-7-7--2-3\--0-0-----0-0-|
    | 8-8-8-8--3-3\--0-0-----0-0-|
    | 7-7-7-7--2-3\--0-0-000-0-0-|

Gtr1    . .    . .    . .    . .    . .    . .    . .    . .
    |----------------------------------------------------------|
    |----------------------------------------------------------|
    |----------------------------------------------------------|
    |---0-0-7--0-0-5--0-0-2--0-0-3--0-0-7--0-0-5--0-0-2--0-0-3-|
    |---0-0-8--0-0-7--0-0-3--0-0-5--0-0-8--0-0-7--0-0-4--0-0-5-|
    |---0-0-7--0-0-5--0-0-2--0-0-3--0-0-7--0-0-5--0-0-2--0-0-3-|
    |
    |                                                           X2
Gtr2|   . .    . .    . .    . .    . .    . .    . .    . .
    |-----------------------------------------------------------|
    |-----------------------------------------------------------|
    |-----------------------------------------------------------|
    |---0-0-7~-0-0-5~-0-0-2~-0-0-3~-0-0-7~-0-0-5~-0-0-2~-0-0-3~-|
    |---0-0-8~-0-0-7~-0-0-3~-0-0-5~-0-0-8~-0-0-7~-0-0-4~-0-0-5~-|
    |---0-0----0-0----0-0----0-0----0-0----0-0----0-0----0-0----|


Gtr1
    |------------------------------------------------------------------|
    |------------------------------------------------------------------|
    |------------------------------------------------------------------|
    |---10~---------------------------7~----------------------------0~-|
    |---8~----------------------------5~----------------------------0~-|
    |---8~----------------------------5~----------------------------0~-|
    |
    |
    | -------------------------------------------|
    | -------------------------------------------|
    | -------------------------------------------|
    | -------------------------------------------|
    | ------------------0---7-0--3--(3)--0-------|
    |
Gtr2|
    |------------------------------------------------------------------|
    |------------------------------------------------------------------|
    |------------------------------------------------------------------|
    |---10~---------------------------7~----------------------------0~-|
    |---8~----------------------------5~----------------------------0~-|
    |---8~----------------------------5~----------------------------0~-|


Gtr1
    |------------------------------------------------------------------|
    |------------------------------------------------------------------|
    |----------------10~---9~-------------------------7~---------------|
    |---10~---------------------10~\--7~-------------------7~---5~\-0~-|
    |---8~----------------------------5~----------------------------0~-|
    |---8~----------------------------5~----------------------------0~-|
    |
    |
Gtr2|
    |------------------------------------------------------------------|
    |------------------------------------------------------------------|
    |------------------------------------------------------------------|
    |---10~---------------------------7~----------------------------0~-|
    |---8~----------------------------5~----------------------------0~-|
    |---8~----------------------------5~----------------------------0~-|
    |
    |
    | ------------------------------------------|
    | ------------------------------------------|
    | ------------------------------------------|
    | --------2~--3~--3/5~------3--2--3--2------|
    | ------------------------------------------|(3)
    | ------------------------------------------|
    |
    |
    | ------------------------------------------|
    | ------------------------------------------|
    | ------------------------------------------|
    | --------5~--7~--7/8~------7--5--7--5------|
    | ------------------------------------------|
    | ------------------------------------------|(3)

Gtr1        . . . . . .    . .            . . . . . .   . .
    |-------------------------------------------------------------|
    |-------------------------------------------------------------|
    |-------------------------------------------------------------|
    |---10~-------------10-----10-----7~--------------7-----7-----|
    |---8~--8-8-8-8---8------8----8\--5~--5-5-5-5---5-----5---5\--|
    |---8~--8-8-8-8-8------8----------5~--5-5-5-5-5-----5---------|
    |
    |
    |
Gtr2|------------------------------------|
    |------------------------------------|
    |------------------------------------|
    |---10~---------------------------7~-|
    |---8~----------------------------5~-|
    |---8~----------------------------5~-|
    |
    |
    |  . .     . .    . .    . .     . .    . .    . .   .
    | --------------------------------------------------------------------|
    | --------------------------------------------------------------------|
    | --------------------------------------------------------------------|
    | ------2~-----3~-----5~-----5\3-----2~-----3~-----2----2h3p2h3p2h3p2-|
    | ----0------0------0------0-------0------0------0--------------------|
    | --0------0------0------0-------0------0------0------0---------------|
    |
    |
    |   . .    . .    . .    . .     . .    . .    . .    .
    | --------------------------------------------------------------------|
    | --------------------------------------------------------------------|
    | --------------------------------------------------------------------|
    | ------5~-----7~-----8~-----8p7-----5~-----7~-----5----5h7p5h7p5h7p5-|
    | --0-0----0-0----0-0----0-0-----0-0----0-0----0-0----0---------------|
    | --0-0----0-0----0-0----0-0-----0-0----0-0----0-0----0---------------|


Gtr1          . . . .                       . . . .
    |---------------------------------------------------------------|
    |---------------------------------------------------------------|
    |---------------------------------------------------------------|
    |---10~---------------------------7~----------------------------|
    |---8~----8-8-8-8-7p0h8p0h8p0h8p0-5~----5-5-5-5-7p5h8p5h7p5h8p5-|
    |---8~----8-8-8-8-----------------5~----5-5-5-5-----------------|
    |
    |
Gtr2|         . . . .                       . . . .
    |---------------------------------------------------------------|
    |---------------------------------------------------------------|
    |---------------------------------------------------------------|
    |---10~-----------5p0h7p0h5p0h7p0-7~------------5p4h7p4h5p4h7p4-|
    |---8~----8-8-8-8-----------------5~----5-5-5-5-----------------|
    |---8~----8-8-8-8-----------------5~----5-5-5-5-----------------|
    |
    |       . . ...                       . . ...
    | ------------------------------------------------------------|
    | ------------------------------------------------------------|
    | ------------------------------------------------------------|
    | 0~----------------------------0~----------------------------|
    | 0~----0-0-000-7p5h8p5h7p5h8p5-0~----0-0-000-7p5h8p5h7p5-(3)-|
    | 0~----0-0-000-----------------0~----0-0-000-----------------|
    |
    |       . . ...                       . . ...
    | ------------------------------------------------------------|
    | ------------------------------------------------------------|
    | ------------------------------------------------------------|
    | 0~------------5p4h7p4h5p4h7p4-0~------------5p4h7p4h5p4-----|
    | 0~----0-0-000-----------------0~----0-0-000-----------------|
    | 0~----0-0-000-----------------0~----0-0-000-------------(3)-|

Gtr1                                                                .
    |------------------------------------------------------------------|
    |------------------------------------------------------------------|
    |------------------------------------------------------------------|
    |---10~---------------------------7~----------------------------0~-|
    |---8~----------------------------5~----------------------------0~-|
    |---8~----------------------------5~----------------------------0~-|
    |
    |
Gtr2|                                                               .
    |------------------------------------------------------------------|
    |------------------------------------------------------------------|
    |------------------------------------------------------------------|
    |---10~---------------------------7~----------------------------0~-|
    |---8~----------------------------5~----------------------------0~-|
    |---8~----------------------------5~----------------------------0~-|
    |
    |
    |               .
    | ------------------|
    | ------------------|
    | ------------------|
    | --------------0---|
    | --------------0---|
    | --------------0---|
    |
    |               .
    | ------------------|
    | ------------------|
    | ------------------|
    | --------------0---|
    | --------------0---|
    | --------------0---|

Gtr1    . .    . .    . .    . .    . .    . .    . .    . .
    |----------------------------------------------------------------------|
    |----------------------------------------------------------------------|
    |----------------------------------------------------------------------|
    |---0-0-7--0-0-5--0-0-2--0-0-3--0-0-7--0-0-5--0-0-2--0-0-3-------------|
    |---0-0-8--0-0-7--0-0-3--0-0-5--0-0-8--0-0-7--0-0-4--0-0-5-------------|
    |---0-0-7--0-0-5--0-0-2--0-0-3--0-0-7--0-0-5--0-0-2--0-0-3-------------|
    |
    |                                                                       X2
Gtr2|   . .    . .    . .    . .    . .    . .    . .    . .
    |----------------------------------------------------------------------|
    |----------------------------------------------------------------------|
    |----------------------------------------------------------------------|
    |---0-0-7~-0-0-5~-0-0-2~-0-0-3~-0-0-7~-0-0-5~-0-0-2~-0-0-3~------------|
    |---0-0-8~-0-0-7~-0-0-3~-0-0-5~-0-0-8~-0-0-7~-0-0-4~-0-0-5~------------|
    |---0-0----0-0----0-0----0-0----0-0----0-0----0-0----0-0---------------|

Gtr1
    |----------------------------------------------------------------------|
    |----------------------------------------------------------------------|
    |----------------------------------------------------------------------|
    |----------------------------------------------------------------------|
    |----------------------------------------------------------------------|
    |0000000000000000000000000000000000000000000000000000000000000000000000
    |
Gtr2|
    |----------------------------------------------------------------------|
    |----------------------------------------------------------------------|
    |----------------------------------------------------------------------|
    |----------------------------------------------------------------------|
    |----------------------------------------------------------------------|
    |0000000000000000000000000000000000000000000000000000000000000000000000


Gtr1
    |-------------------------------------------------------------------|
    |-------------------------------------------------------------------|
    |-------------------------------------------------------------------|
    |-------------------------------------------------------------------|
    |-------------------------------------------------------------------|
    |002233003355005577007788008811118800887700775500553300332200223322-
    |
Gtr2|                                                                  X2
    |-----------------------------------------------------------------|
    |-----------------------------------------------------------------|
    |-----------------------------------------------------------------|
    |----------------------55--558855--55-----------------------------|
    |0033550055770077880088--00------00--8800887700775500553300332233-|
    |-----------------------------------------------------------------|

Gtr1                                                             . . . .
    |----------------------------------------------------------------------|
    |----------------------------------------------------------------------|
    |----------------------------------------------------------------------|
    |---0-2-3-0-3-5-0-5-7-0-7-8-0-8-11-8-0-8-7-0-7-5-0-5-3-0-3-2-0-2-3-2---|
    |---0-2-3-0-3-5-0-5-7-0-7-8-0-8-11-8-0-8-7-0-7-5-0-5-3-0-3-2-0-2-3-2---|
    |---0-2-3-0-3-5-0-5-7-0-7-8-0-8-11-8-0-8-7-0-7-5-0-5-3-0-3-2-0-2-3-2---|
    |
Gtr2|
    |------------------------------------------------------------------------|
    |------------------------------------------------------------------------|
    |------------------------------------------------------------------------|
    |------------------------------------------------------------------------|
    |---0-3-5-0-5-7-0-7-8-0-8-10-0-10-13-10-0-10-8-0-8-7-0-7-5-0-5-3-0-3-5-3-|
    |------------------------------------------------------------------------|


Gtr1    . .   . .   . .   . .   . .      . .   . .   . .   . .   . .
    |-----------------------------------------------------------------|
    |-----------------------------------------------------------------|
    |-----------------------------------------------------------------|
    |---0-0---0-0---0-0---0-0---0-0------0-0---0-0---0-0---0-0---0-0--|
    |---0-0---0-0---0-0---0-0---0-0------0-0---0-0---0-0---0-0---0-0--|
    |---0-0---0-0---0-0---0-0---0-0------0-0---0-0---0-0---0-0---0-0--|
    |
Gtr2|
    |--------------------------------------------------------------------|
    |--------------------------------------------------------------------|
    |--------------------------------------------------------------------|
    |---0-2-3-0-3-5-0-5-7-0-7-8-0-8-11-8-0-8-7-0-7-5-0-5-3-0-3-2-0-2-3-2-|
    |--------------------------------------------------------------------|
    |--------------------------------------------------------------------|


Gtr1
    |------------------------------------------------------------------------|
    |------------------------------------------------------------------------|
    |------------------------------------------------------------------------|
    |------------------------------------------------------------------------|
    |---0-3-5-0-5-7-0-7-8-0-8-10-0-10-13-10-0-10-8-0-8-7-0-7-5-0-5-3-0-3-5-3-|
    |------------------------------------------------------------------------|
    |
Gtr2|                                                                      X2
    |----------------------------------------------------------------------|
    |----------------------------------------------------------------------|
    |----------------------------------------------------------------------|
    |---0-2-3-0-3-5-0-5-7-0-7-8-0-8-11-8-0-8-7-0-7-5-0-5-3-0-3-2-0-2-3-2---|
    |----------------------------------------------------------------------|
    |----------------------------------------------------------------------|

Gtr1
    |--------------------------------------------------------------------|
    |--------------------------------------------------------------------|
    |---(5)//////////////////////////(7)\\\\\\\\\\\\\\\\\\\\\\\\\\\\\\\\-|
    |--------------------------------------------------------------------|
    |--------------------------------------------------------------------|
    |--------------------------------------------------------------------|
    |
Gtr2|
    |--------------------------------------------------------------------|
    |--------------------------------------------------------------------|
    |--------------------------------------------------------------------|
    |---0-2-3-0-3-5-0-5-7-0-7-8-0-8-11-8-0-8-7-0-7-5-0-5-3-0-3-2-0-2-3-2-|
    |--------------------------------------------------------------------|
    |--------------------------------------------------------------------|


Gtr1                                                                 . . . .
    |------------------------------------------------------------------------|
    |------------------------------------------------------------------------|
    |------------------------------------------------------------------------|
    |----------------------------------------------------------------0-2-3-2-|
    |---0-3-5-0-5-7-0-7-8-0-8-10-0-10-13-10-0-10-8-0-8-7-0-7-5-0-5-3-0-2-3-2-|
    |----------------------------------------------------------------0-2-3-2-|
    |
Gtr2|                                                            . . . .
    |--------------------------------------------------------------------|
    |--------------------------------------------------------------------|
    |--------------------------------------------------------------------|
    |---0-2-3-0-3-5-0-5-7-0-7-8-0-8-11-8-0-8-7-0-7-5-0-5-3-0-3-2-0-2-3-2-|
    |------------------------------------------------------------0-2-3-2-|
    |------------------------------------------------------------0-2-3-2-|

Gtr1                                                    ...
    |-------------------------------------------------------|
    |-------------------------------------------------------|
    |-------------------------------------------------------|
    |--0~--------------------------------7-7-7-7--2-3\--000-|
    |--0~--------------------------------8-8-8-8--3-3\--000-|
    |--0~--------------------------------7-7-7-7--2-3\--000-|
    |
Gtr2|                                                   ...
    |-------------------------------------------------------|
    |-------------------------------------------------------|
    |-------------------------------------------------------|
    |--0~--------------------------------7-7-7-7--2-3\--000-|
    |--0~--------------------------------8-8-8-8--3-3\--000-|
    |--0~--------------------------------7-7-7-7--2-3\--000-|
Добавлено: 06.01.2014
Другие материалы по этой песне:
  • Аккорды и текст

Страница создана 06.01.2014
http://primanota.ru/misc-unsigned-bands/six-feet-from-forever-taken-for-granted-chords.htm
Привет, Гость.
Предлагаем пройти революционный курс по гитаре.
Подарок от PrimaNota.Ru, забирай!