PrimaNota.ru - самый крупный в мире бесплатный архив песенных текстов, аккордов, табулатур и нот


Misc Unsigned Bands - Sing Praises To Jehovah - 29 Forward You Witnesses - таба

Регистрация Запомнить меня
Войти через:  Facebook Google Twitter Vk Yandex Mail.ru

Misc Unsigned Bands - Sing Praises To Jehovah - 29 Forward You Witnesses - таба

Печатать
Просмотров: 52
Уроки эстрадного вокала в Санкт-Петербурге
Sing Praises to Jehovah

Kingdom Melody #29

TAB by Stanilemgo

Copyright, 1984, by 
Watch Tower Bible and Tract Society
of Pennsylvania

2/4

    Let Ring Throughout
E||------------|------------|-----0--1--0|------------|--3---------|--3---------|
B||--3---------|--3---------|--3---------|--3-----3---|--3---3--3--|--3---3--3--|
G||-----2--2---|-----2--2---|------------|------------|--3---------|--3---------|
D||--0---------|--0---------|--0---------|--0---------|------------|------------|
A||-----0--0---|-----0--0---|------------|------------|--5---------|------------|
E||------------|------------|------------|------------|------------|------------|


|--3--5--6--5|--3----6----|--5---5--5--|--5---7--9--|--10--------|------------|
|--3---------|--3---------|--5---5-----|--5---------|--10--------|------5--6--|
|--3---------|--3---------|--6---6-----|--6---------|--10--------|------------|
|------------|------------|------------|------------|--0----12---|------------|
|--5---------|--5---------|--7---7-----|--7---------|-------0----|------------|
|------------|------------|--5---------|------------|------------|------------|

                                               ~~~~~
|--3---3--6--|--5---------|--5---------|------------|--1---1--1--|--3--3--3---|
|--3---------|--5--8--6--5|--6---------|-------1----|--1---1--1--|--1--1--1---|
|--3---------|--6---------|--7----7----|-------3----|--2---2--2--|--3---------|
|------------|------------|--0---------|-------2----|--3---------|--2---------|
|--5---------|--7---------|-------0----|-------3----|--3---------|------------|
|------------|------------|------------|------------|------------|------------|


|--5-----5--7|--8---------|--1---1---1-|--3---3--3--|--5-----5--7|--8---------|
|--6--8------|--6-----1---|--1---1---1-|--1---2-----|--6--8------|--5-----6---|
|--5---------|--5---------|--2---2---2-|--3---2-----|--7---------|--5---------|
|--7---------|--7---------|--3---------|--2---2-----|--0---------|--5---------|
|------------|------------|--3---------|------------|------------|------------|
|------------|------------|------------|------------|------------|------------|


|--10---6--5-|--3---5--6--|--8--5------|--1------1--|--10--------|-----3--5---|
|------------|--5---------|--6--------8|--3---3-----|------------|--6---------|
|--10--------|--5---------|--5-----5---|--2---------|--10--10--10|--3---------|
|--8---------|--5---------|--7---------|--0---------|--8---------|------------|
|------------|------------|------------|------------|------------|--5---------|
|------------|------------|------------|------------|------------|------------|


|--3----1----|------------|
|--1----1----|------------|
|--2----2----|------------|    Repeat all 3 times
|------------|------------|
|--3---------|------------|
|-------1----|------------|
Добавлено: 04.09.2013
Другие материалы по этой песне:
  • Аккорды и текст

Страница создана 04.09.2013
http://primanota.ru/misc-unsigned-bands/sing-praises-to-jehovah-29-forward-you-witnesses-chords.htm
Привет, Гость.
Предлагаем пройти революционный курс по гитаре.
Подарок от PrimaNota.Ru, забирай!