PrimaNota.ru - самый крупный в мире бесплатный архив песенных текстов, аккордов, табулатур и нот


Misc Unsigned Bands - Sinful Angel - Beyond The Grave - таба, видео

Регистрация Запомнить меня
Войти через:  Facebook Google Twitter Vk Yandex Mail.ru

Misc Unsigned Bands - Sinful Angel - Beyond The Grave - таба, видео

Печатать
Просмотров: 52
Table of Contents

 /= slide up

 \= slide down

 d= pick down

 u= pick up

 (7)
 (5)= note is fingered but not picked
 (5)

 X
 X= palm muted dead note (still finger the chord while you play this)
 X

 h= hammer-on

 p= pull-off

 ~~~= vibrato



VERSE 1,2,3

Guitar 1           play 4x                      play 3x
-------------------------------------------|---------------------|
-------------------------------------------|---------------------|
-------------10-9--------------------------|---------------------|
---10h12-12---------10h12---------------10-|---------------------|
-0------------------------10h12-0-10h12----|--10h12-10---10p8-7h8|
-0----------0-----0-------------0----------|0----------0---------|


then play this 1x (without guitar 2)
--------------------|
--------------------|
--------------------|
---------8-7--------|
---8~~~~-----10-8-7-|
-0------------------|


Guitar 2      play 4x                    play 3x
-------------------------------|---------------------------------|
-------------------------------|---------------------------------|
----------10-9-----------------|----------10-9-------------------|
-10h12-12------10h12-----------|-10h12-12------10h12-------------|
---------------------10h12-----|---------------------10h12-------|
-------------------------------|---------------------------------|


CHORUS 1,2

Guitar 1           play this 4x
------------------------------------------------------------------------------|
------------------------------------------------------------------------------|
------------------------------------------------------------------------------|
-----7---7-----7-----7/10-----10---10-----10-----10\7-----7---7-----7-----7\3-|
-5-5-------5-----5--------8-8---------8------8--------5-5-------5-----5-------|
-0-----0-----0-----0------8------0------0------0------5-----5-----5-----5-----|


    play this 3x         Then play this the last time
-----------------------|----------------------|
-----------------------|----------------------|
-----------------------|----------------------|
-----3---3-----3-----3-|-----3---3-----3~~~~~-|
-1-1-------1-----1-----|-1-1-------1----------|
-1-----1-----1-----1---|-1-----1-----1--------|


Guitar 2           Play 2X
----------------------------------------------------|
----------------------------------------------------|
----------10-9----------------------10-9------------|
-10h12-12------10h12-------10h12-12------10h12------|
---------------------10h12---------------------10h12|
----------------------------------------------------|


----------------------------------------------------|
----------------------------------------------------|
----------10-9----------------------10-9-12b--------|
-10h12-12------10h12-------10h12-12-----------------|
---------------------10h12--------------------------|
----------------------------------------------------|


SOLO
Guitar 1
---------------------------------------------------------------|
---------------------------------------------------------------|
------------10-9----------------10-9h10p9----9----------10~~~--|
-12~~~~12\0------12-10----10-12-----------12---10h12~~~--------|
-----------------------12--------------------------------------|
---------------------------------------------------------------|

-13-12-10----10----------------------------------------------------------|
----------13----11-13-10-11----10h11-10~~~-11~~~-10h11----10h11----10h11-|
----------------------------10~~~----------------------10~~~~~~-10~~~~~~-|
-------------------------------------------------------------------------|
-------------------------------------------------------------------------|
-------------------------------------------------------------------------|

-------------------------10---------------------------------------|
----10h11p10-10~~~-11~~~----13-11-10----10------------------------|
-10~~~~------------------------------12----12-10-9----------------|
---------------------------------------------------12-10----10h12-|
---------------------------------------------------------12-------|
------------------------------------------------------------------|

-------------------------------------------------------------|
-------------------------------------------------------------|
-10-9----------------10-9h10p9----9--------------------------|
------12-10----10-12-----------12---10h12p10-----------------|
------------12-------------------------------10h12p10-8h10p8-|
-------------------------------------------------------------|

--------------------------------------------------------------------|
--------------------------------------------------------------------|
--------------------------------------------------------------------|
-----------------------------------------------10----------10----10-|
-5-7-8-7-8-8/10-8-7-8-10-10/12~~-12-10-8-10-12----12-10-12----12----|
--------------------------------------------------------------------|

----------------------------------------------------------------|
----------------------------------------------------------------|
-----------10-9----------------10-9h10p9----9-------------------|
-12~~12~~-------12-10----10-12-----------12---10h12p10----------|
----------------------12-------------------------------10h12p10-|
----------------------------------------------------------------|

----------------------|
----------------------|
----------------------|
----------------------|
-8h10p8-7h8p7-5~~~~~~-|
----------------------|


GUITAR 2         Play 5X
|-------------------------------------------------------------------|
|-------------------------------------------------------------------|
|-------------------------------------------------------------------|
|-----7---7/10-----10-----------7---7\5-----5-/-(7)---7-----7---7/--|
|-5-5---5------8-8----8-----5-5---5-----3-3---/-(5)-----5-5---5-----|
|-0------------8--------8\0-0-----------3-----/-(5)-5---0-----------|
                slide the whole chord up^ ^ ^ to ^ but don't pick it!!

                           Play 4X    play this last time
------------------------|-----------||-------------------||
------------------------|-----------||-------------------||
------------------------|-----------||-------------------||
-----10-----------5-----|/-7---7----||-/(12)-12-12-12-12-||
-8-8----8-----3-3---3---|/-5-5---5--||-/(10)-10-10-10-10-||
-8--------8\0-3-------3-|/-5-------5||-/(10)-10-10-10-10-||
        slide the chord up ^ but you pick the chord this time

 Guitar 2 plays the rest of the song.    Play 2X
|--------------------------------------------------------------|
|--------------------------------------------------------------|
|--------------------------------------------------------------|
|-10-10-10-10-10-10/15-15-14-14-14-14-14-14-14-14-14-14-15-14\-|
|--8--8--8--8--8--8-------------12-12-12-12-12-12--------------|
|--8--8--8--8--8--8-------------12-12-12-12-12-12--------------|
   d  d  u  d  u  d              d  d  u  d  u  d
                                    Play 1X
-------------------------------|-------------------------------|
-------------------------------|-------------------------------|
-------------------------------|------------------------17-----|
--10-10-10-10-10-10/15-15-14-14|14-14-14-14-14-14-15-15----15/-|
---8--8--8--8--8--8------------|12-12-12-12-12-12--------------|
---8--8--8--8--8--8------------|12-12-12-12-12-12--------------|
   d  d  u  d  u  d              d  d  u  d  u  d

|----------------------------------------------------------------------|
|----------------------------------------------------------------------|
|----------------------------------------------------------------------|
|-14~~-15~-14\-10~~-10h12~-10\-7-7h8~-7\-5~~-7~-3~-3-5-7-7/8-7-5/7~~~~-|
|-12~~----------8~~------------5---------3-----------------------------|
|-12~~----------8~~------------5---------3-----------------------------|


Play 2X
|--------------------------------------------------------------|
|--------------------------------------------------------------|
|--------------------------------------------------------------|
|-10-10-10-10-10-10/15-15-14-14-14-14-14-14-14-14-14-14-15-14\-|
|--8--8--8--8--8--8-------------12-12-12-12-12-12--------------|
|--8--8--8--8--8--8-------------12-12-12-12-12-12--------------|
   d  d  u  d  u  d              d  d  u  d  u  d
                                    Play 1X
-------------------------------|-------------------------------|
-------------------------------|-------------------------------|
-------------------------------|------------------------17-----|
--10-10-10-10-10-10/15-15-14-14|14-14-14-14-14-14-15-15----15/-|
---8--8--8--8--8--8------------|12-12-12-12-12-12--------------|
---8--8--8--8--8--8------------|12-12-12-12-12-12--------------|
   d  d  u  d  u  d              d  d  u  d  u  d

|------------------------------------------------------------------------|
|------------------------------------------------------------------------|
|------------------------------------------------------------------------|
|-14~~-15~-14\-10~~-10h12~-10\-7-7h8~-7h8p7p5-5~~-7~-3~-3-5-7-7/8-7-8/10-|
|-12~~----------8~~------------5--------------3--------------------------|
|-12~~----------8~~------------5--------------3--------------------------|

       Play 4X
|------------------------------------------------------------|
|------------------------------------------------------------|
|------------------------------------------------------------|
|-10-10-10-10-10-10-10-10-10-10/-14-14-14-14-14-14-14-14-x-x-|
|--8--8--8--8--8--8--8--8--8--8/-12-12-12-12-12-12-12-12-x-x-|
|--8--8--8--8--8--8--8--8--8--8/-12-12-12-12-12-12-12-12-x-x-|
   d  d  u  d  u  d  d  u  d  u  d  d  u  d  u  d  d  u  d u
                                  Play 3X             then play this 1X
-------------------------------|---------------------|----------------||
-------------------------------|---------------------|----------------||
-------------------------------|---------------------|----------------||
-10-10-10-10-10-10-10-10-10-10\|-7-7-7-7-7-7-7-7-7-7-|-7~~-5----------||
--8--8--8--8--8--8--8--8--8--8\|-5-5-5-5-5-5-5-5-5-5-|-5~~---0~~~~~~--||
--8--8--8--8--8--8--8--8--8--8\|-5-5-5-5-5-5-5-5-5-5-|-5~~---0~~~~~~--||
  d  d  u  d  u  d  d  u  d  u   d d u d u d d u d u   ^slow sweep
Добавлено: 09.06.2013
Другие материалы по этой песне:
  • Аккорды и текст

Страница создана 09.06.2013
http://primanota.ru/misc-unsigned-bands/sinful-angel-beyond-the-grave-chords.htm
Привет, Гость.
Предлагаем пройти революционный курс по гитаре.
Подарок от PrimaNota.Ru, забирай!