PrimaNota.ru - самый крупный в мире бесплатный архив песенных текстов, аккордов, табулатур и нот


Misc Unsigned Bands - Silver Medley - Disaster By Comparison - аккорды и текст

Регистрация Запомнить меня
Войти через:  Facebook Google Twitter Vk Yandex Mail.ru

Misc Unsigned Bands - Silver Medley - Disaster By Comparison - аккорды и текст

Печатать
Просмотров: 38
Silver Medley - Disaster By Comparison
Misc Unsigned Bands
URL: http://www.purevolume.com/asilvermedley
Location: Voorhees, NJ
Independent Label

By Skip Waldron
Ill add guitar 2 chorus n guitar 4 bridge later but this is a start

Guitar 1

Intro

e--------------------------|
B--------0-------0---------|
G------2-------2---2-------|  2x
D----2-------2-------2-----|
A--0-------0-----------0---|
D--------------------------|

Verse/Bridge

e---------------------------------------------------------------------|
B----------0----------------2---------------3-------------------------|
G------2-----2---2------2-----2---2-----2-----2---2-----2-------2-----|  x6
D----2---2-----2------0---0-----0-----0---0-----0-----0---0---0---0---|
A--0----------------2---------------2---------------2-------2---------|
D---------------------------------------------------------------------|

Guitar 2

Verse (after guitar 1 goes through 4 times)

e--------------5-------------2--------------------------------|
B--5-3-2-3-5-5---5-3-2-3-5-5---5-3-2-3-5-5-5--5-3-2-3-2-3-0---|
G-------------------------------------------------------------|
D-------------------------------------------------------------|  x2
A-------------------------------------------------------------|
D-------------------------------------------------------------|

Guitar 1

Chorus
                      on 4th time
e--0--0(5)0--0---    --0--0(5)0--------------------------------|
B--3--0(5)3--2(3)    --3--0(5)3----------------------------3---|
G--2--2---2--2--- x3 --2--2---2------2-------2-------2-------2-|
D--2--0---0--0---    --2--0---0----0---0---0---0---0---0-------|
A--0--4---2--2---    --0--4---2--2-------2-------2-------2-----|
D--0--0---0--0---    --0--0---0--------------------------------|


Bridge Guitar 3

e----------7----------------9---------------10----------------------|
B------10----10--9-----10----10---10----10----10---10---10-----10---|
G----9---9-----9-----9----9-----9-----9----9-----9-----9--9--9----9-|
D--7---------------9----------------9-----------------9----9--------|
A-------------------------------------------------------------------|
D-------------------------------------------------------------------|

Bridge Guitar 2

e--------------5------------2------------0-------------|
B--5--3p2h3-3----5--3p2h3-3---5--3p2h3-3---5--3p2h3-3--|
G----------------------------------------------------2-|
D------------------------------------------------------|
A------------------------------------------------------|
D------------------------------------------------------|
Добавлено: 06.10.2013
Другие материалы по этой песне:
  • Аккорды и текст

Страница создана 06.10.2013
http://primanota.ru/misc-unsigned-bands/silver-medley-disaster-by-comparison-chords.htm
Привет, Гость.
Предлагаем пройти революционный курс по гитаре.
Подарок от PrimaNota.Ru, забирай!