PrimaNota.ru - самый крупный в мире бесплатный архив песенных текстов, аккордов, табулатур и нот


Misc Unsigned Bands - Silbermond - Kartenhaus - таба

Регистрация Запомнить меня
Войти через:  Facebook Google Twitter Vk Yandex Mail.ru

Misc Unsigned Bands - Silbermond - Kartenhaus - таба

Печатать
Просмотров: 49
Уроки эстрадного вокала в Санкт-Петербурге
Silbermond - Kartenhaus

Tabbed by: Sascha Paysen
E-Mail: blueblizzard@arcor.de

Tuning: EADgbe (Capo in 2nd Fret)

Effects: a little bit Chorus, Reverb and a touch of distortion

I tried to figure out the strumming, but I thing you should listen to the song
and hear how to do.



Intro:

e|--2-----2-2----------------------0-----------------------------------0-------|
B|----0-------0---0-3-----3-2---2h3--3-----3-3-----3-3----3----2----2h3--------|
G|------0-------0-------0------0-------0-------2-----0----0----0---0-----------|
D|--------------------0-------2----------0-------2---0----2----2--2------------|
A|--2-------0---------------1--------2-------0-------2----2----1---------------|
E|------------------3--------------------------------3----0--------------------|

e|--2-----2-2---2h3p2-------------------0--------------------------------------|
B|----0-------0------0---3-----3-2---2h3--3-----3-3-----3-3----3----2----------|
G|------0-------------0------0------0-------0-------2-----0----0----0----------|
D|---------------------0---0-------2----------0-------2---0----2----2----------|
A|--2-------0--------------------1--------2-------0-------2----2----1----------|
E|-----------------------3--------------------------------3----0---------------|


Verse 1:

e|-----------------------------------------------------------------------------|
B|-------3---3------3---3------3---3s2-----2---2s3-----------------------------|
G|-------2---2------2---0------0---0-------0---0-------------------------------|
D|--------------------------------------2--------------------------------------|
A|-2--2-----2-0--0-----0-------------1--------1-s2-----------------------------|
E|-----------------------3--3-----3--------------------------------------------|

e|----------------------------------------0------------------------------------|
B|-------3---3------3---3------3---3s2-----2-2s3-------------------------------|
G|-------2---2------2---0------0---0-----0-------------------------------------|
D|--------------------------------------2--------------------------------------|
A|-2--2-----2-0--0-----0-------------1------1-s2-------------------------------|
E|-----------------------3--3-----3--------------------------------------------|

e|----------------------------------------0------------------------------------|
B|-------3---3------3---3------3---3s2-----2-2s3-------------------------------|
G|-------2---2------2---0------0---0-----0-------------------------------------|
D|--------------------------------------2--------------------------------------|
A|-2--2-----2-0--0-----0-------------1------1-s2-------------------------------|
E|-----------------------3--3-----3--------------------------------------------|

e|-----------------------------------------------------------------------------|
B|-------3---3------3---3------3---3s2---2-------------------------------------|
G|-------2---2------2---0------0---0--------0--0-------------------------------|
D|--------------------------------------2--------------------------------------|
A|-2--2-----2-0--0-----0-------------1-----------------------------------------|
E|-----------------------3--3-----3--------------------------------------------|


Bridge:

e|------5----------------------------------------------------------------------|
B|-3----3----2-------3---3----3-----------2--2--2-s3--3--333--33---------------|
G|-2----2----2------2---2--------0--------2--2--2--2--2--222--22---------------|
D|-0----0----0-----0---0-----0------0-----0--0--0--0--0--000--00---------------|
A|-2----2----2----2---0-------------------2--2--2--2--2--220--00---------------|
E|------------------------3----------------------------------------------------|


Refrain:

e|-----------------------------------------------------------------------------|
B|-3--3-30-2--2-22---2--2s2-3--333--33---3--3-33------3--3-3-2--22s33--333--33-|
G|-0--0-00-2--2-20---0--0-0-2--222--22---0--0-00------0--0-0-0--00-02--222--20-|
D|-0--0-0--2--2-20---2--2-0-0--000--00---0--0-00------2--2-2-2--22-00--000--00-|
A|-2--2-2--0--0-0----1--1s2-2--220--00---2--2-2-------2--2-2-1--11s22--220--0--|
E|-3--3-3--------------------------------3--3-3-0--0--0--0-0-------------------|

e|-----------------------------------------------------------------------------|
B|-3--3-30-2--2-22---2--2s2-3--333--33---3--3------------3---2-----------------|
G|-0--0-00-2--2-20---0--0-0-2--222--22---0--0------------0---0-----------------|
D|-0--0-0--2--2-20---2--2-0-0--000--00---0--0------------2---2-----------------|
A|-2--2-2--0--0-0----1--1s2-2--220--00---2--2------------2---1-----------------|
E|-3--3-3--------------------------------3--3--3-2-0--0--0---------------------|


Bridge:

e|-2-----2-2-------------0--------0-----------------------------------0-------|
B|---0-------0---0-3-------2---2h3--3-----3-3-----3-3----3----2----2h3--------|
G|-----0-------0-------0------0-------0-------2-----0----0----0---0-----------|
D|-------------------0-------2----------0-------2---0----2----2--2------------|
A|-2-------0---------------1--------2-------0-------2----2----1---------------|
E|-----------------3--------------------------------3----0--------------------|


Verse 2:

e|-----------------------------------------------------------------------------|
B|-------3---3------3---3------3---3s2-----2---2s3-----------------------------|
G|-------2---2------2---0------0---0-------0---0-------------------------------|
D|--------------------------------------2--------------------------------------|
A|-2--2-----2-0--0-----0-------------1--------1-s2-----------------------------|
E|-----------------------3--3-----3--------------------------------------------|

e|----------------------------------------0------------------------------------|
B|-------3---3------3---3------3---3s2-----2-2s3-------------------------------|
G|-------2---2------2---0------0---0-----0-------------------------------------|
D|--------------------------------------2--------------------------------------|
A|-2--2-----2-0--0-----0-------------1------1-s2-------------------------------|
E|-----------------------3--3-----3--------------------------------------------|

e|-----------------------------------------------------------------------------|
B|-------3---3------3---3------3---3s2----2------------------------------------|
G|-------2---2------2---0------0---0-----0-0--0--------------------------------|
D|--------------------------------------2--------------------------------------|
A|-2--2-----2-0--0-----0-------------1-----------------------------------------|
E|-----------------------3--3-----3--------------------------------------------|

e|-2-----2--0------------------------------------------------------------------|
B|-3------3------3--------3---2------------------------------------------------|
G|-2--2----2----0---0--0--0---0------------------------------------------------|
D|-0----------------------0---2------------------------------------------------|
A|-----------0------------2---1------------------------------------------------|
E|------------------------3----------------------------------------------------|


Bridge:

e|------5----------------------------------------------------------------------|
B|-3----3----2-------3---3----3-----------2--2--2-s3--3--333--33---------------|
G|-2----2----2------2---2--------0--------2--2--2--2--2--222--22---------------|
D|-0----0----0---------0-----0------0-----0--0--0--0--0--000--00---------------|
A|-2----2----2----2---0-------------------2--2--2--2--2--220--00---------------|
E|------------------------3----------------------------------------------------|


Refrain:

e|-------------------------------------------------------------------------0-2-|
B|-3--3-30-2--2-22---2--2s2-3--333--33---3--3-33------3--3-3-2--22s33--333-3-3-|
G|-0--0-00-2--2-20---0--0-0-2--222--22---0--0-00------0--0-0-0--00-02--222-2-2-|
D|-0--0-0--2--2-20---2--2-0-0--000--00---0--0-00------2--2-2-2--22-00--000-----|
A|-2--2-2--0--0-0----1--1s2-2--220--00---2--2-2-------2--2-2-1--11s22--220-----|
E|-3--3-3--------------------------------3--3-3-0--0--0--0-0-------------------|

e|-2--2-2----------------------------------------------------------------------|
B|-3--3-30-2--2-22---2--2s2-3--333--33---3--3------------3---2-----------------|
G|-0--0-00-2--2-20---0--0-0-2--222--22---0--0------------0---0-----------------|
D|-0--0-0--2--2-20---2--2-0-0--000--00---0--0------------2---2-----------------|
A|-x--x-x--0--0-0----1--1s2-2--220--00---2--2------------2---1-----------------|
E|-3--3-3--------------------------------3--3--3-2-0--0--0---------------------|
Добавлено: 12.10.2013
Другие материалы по этой песне:
  • Аккорды и текст

Страница создана 12.10.2013
http://primanota.ru/misc-unsigned-bands/silbermond-kartenhaus-chords.htm
Привет, Гость.
Предлагаем пройти революционный курс по гитаре.
Подарок от PrimaNota.Ru, забирай!