PrimaNota.ru - самый крупный в мире бесплатный архив песенных текстов, аккордов, табулатур и нот


Misc Unsigned Bands - Silbermond - Endlich - таба, видео

Регистрация Запомнить меня
Войти через:  Facebook Google Twitter Vk Yandex Mail.ru

Misc Unsigned Bands - Silbermond - Endlich - таба, видео

Печатать
Просмотров: 70
Уроки эстрадного вокала в Санкт-Петербурге
[Intro]

Dm             C          G

-----0h1----- ---------- --------- -------5-3---------------|
---------3--- -----3---- --------- ------------0-5---5-s3-3-|
---2-------2- --------0- -----0--- ----------------0--------|
-0----------- ---2------ ----0---- -----7-------------------|
------------- -3-------- -------2- -3s5---------------------|
------------- ---------- -3------- -----------------------3-|


-----1------- -----3----- ----------- -------5-1-----3------------- -------|
-------3----- -------3--- -----3----- -----------------3-----3----- -------|
---2-----2--- ---0-----0- -------0--- -------------0-------0---0--- -------|
-0----------- ----------- ---0-----0- -----7---------------------0- -----0-|
------------- -3--------- ----------- -3s5-------3----------------- -0h2---|
------------- ----------- -3--------- -------------------3--------- -------|

wir tragen...                        sei unbesorgt...

-----5-1-- -----3---- ------------------ -----0h1--- --- -------
---------- -------3-- -0-------0h1-1h3-- ---------3- --- ----0--
---2------ ---------- ------------------ ---2------- --- ----0--
-0-------- ---2------ -----0------------ -0--------- --- -------
---------- -3-------- -------0---------- ----------- -3- -------
---------- ---------- -3---------------- ----------- --- ---3---
... angst              stunde...                     verg
Добавлено: 08.02.2014
Другие материалы по этой песне:
  • Аккорды и текст

Страница создана 08.02.2014
http://primanota.ru/misc-unsigned-bands/silbermond-endlich-chords.htm
Привет, Гость.
Предлагаем пройти революционный курс по гитаре.
Подарок от PrimaNota.Ru, забирай!