PrimaNota.ru - самый крупный в мире бесплатный архив песенных текстов, аккордов, табулатур и нот


Misc Unsigned Bands - Sidewinder - My Country - таба, бас-таба

Регистрация Запомнить меня
Войти через:  Facebook Google Twitter Vk Yandex Mail.ru

Misc Unsigned Bands - Sidewinder - My Country - таба, бас-таба

Печатать
Просмотров: 116
-------------------------------------------------------------------------------
                             MY COUNTRY - Sidewinder
-------------------------------------------------------------------------------


Tabbed by: Isaias Garcia (TexasFury)

Tuning: Standard


Sidewinder is from my hometown of Brownsville, TX. They've been around since the late 80s, and I even once
tried out on bass way back then. Since Dave Valdez doesn't vary his riffing for the rhythm, just the isolated
riffs are notated.


   Driving Rock - 155 bpm (swing 8ths)

Guitar - rhythm

Intro Riff 1a, Guitar Solo Riff 2

           |---3--|  |---3--|  |---3--|   
     E  E  E   E  E  E   E  E  E   E  E   
E||--------------------------------------|
B||--------------------------------------|
G||--------------------------------------|
D||---------------5--2p--0---------------|
A||-------------------------5--2p--0-----|
E||--0--0--3p--0----------------------3--|


  |---3--|  |---3--|  |---3--|  |---3--|   
  E   E  E  E   E  E  E   E  E  E   E  E   
------------------------------------------|
------------------------------------------|
------------------------------------------|
----------------------2p--0---------------|
--2p--0-----5p--0------------5--2p--0-----|
---------3---------3-------------------3--|


        |---3--|  |---3--|  |---3--|     |----3----|                     
  E  E  E   E  E  E   E  E  E   E  E     Q    Q    Q    E      Q.        
--------------------------------------|--------------------------------|
--------------------------------------|--------------------------------|
--------------------------------------|--------------------------------|
---------------5--2p--0---------------|--7----7----8----9--------------|
-------------------------5--2p--0-----|--5----5----6----7--------------|
--0--0--3p--0----------------------0--|--------------------10g12\------|




Intro Riff 1b

  |---3--|  |---3--|  |---3--|  |---3--|   
  E   E  E  E   E  E  E   E  E  E   E  E   
------------------------------------------|
------------------------------------------|
------------------------------------------|
----------------------2p--0---------------|
--2p--0-----5p--0------------5--2p--0-----|
---------3---------3-------------------3--|


        |---3--|  |---3--|  |---3--|     |----3----|          |--3--|   
  E  E  E   E  E  E   E  E  E   E  E     Q    Q    Q    E  E  E  E  E   
--------------------------------------|--------------------------------|
--------------------------------------|--------------------------------|
--------------------------------------|--------------------------------|
---------------5--2p--0---------------|--7----7----8----9--x--x--x--x--|
-------------------------5--2p--0-----|--5----5----6----7--x--x--x--x--|
--0--0--3p--0----------------------0--|--------------------------------|


  |----3----|                     
  Q    Q    Q    E  E     Q       
--------------------------------|
--------------------------------|
--------------------------------|
--7----7----8----9--x-----------|
--5----5----6----7--x-----------|
-----------------------9g12\----|




Verse Riff 1a

        |---3--|                     |---3--|             
  E  E  E   E  E  Q    Q       E  E  E   E  E  Q    Q     
----------------------------|----------------------------|
----------------------------|----------------------------|
------------------2----4----|------------------2---------|
--------4p--2-----2----4----|--------4p--2-----2----2----|
---------------4------------|---------------4-------2----|
--2--2----------------------|--2--2-----------------0----|


        |---3--|               |---3--|  |---3--|  |---3--|   |---3--|    
  E  E  E   E  E  Q    Q       E   E  E  E   E  E  E   E  E   E   E  E    
----------------------------|-------------------------------------------|
----------------------------|-------------------------------------------|
------------------2----4----|-------------------------------------------|
--------4p--2-----2----4----|--4p--2-----4p--2-----4p--2----------------|
---------------4------------|---------4---------4---------4p--3p--2-----|
--2--2----------------------|----------------------------------------5--|



Verse Riff 1b, Guitar Solo Riff 3

        |---3--|                     |---3--|             
  E  E  E   E  E  Q    Q       E  E  E   E  E  Q    Q     
----------------------------|----------------------------|
----------------------------|----------------------------|
------------------2----4----|------------------2---------|
--------4p--2-----2----4----|--------4p--2-----2----2----|
---------------4------------|---------------4-------2----|
--2--2----------------------|--2--2-----------------0----|


        |---3--|                                     
  E  E  E   E  E  Q    Q       Q    Q    Q    Q      
----------------------------|----------------------|
----------------------------|----------------------|
------------------2----4----|--2----4----2---------|
--------4p--2-----2----4----|--2----4----2----2----|
---------------4------------|-----------------2----|
--2--2----------------------|-----------------0----|



Chorus riff
                                                          |---3--|             
  H.           Q        H.              Q        E  E  E   E  E  Q    Q     
---------------------|------------------------|----------------------------|
---------------------|------------------------|----------------------------|
--7------------7S----|--9---------------------|------------------2----4----|
--7------------7S----|--9---------------------|--------4p--2-----2----4----|
--5------------5S----|--7---------------------|---------------4------------|
---------------------|---------------7g12\----|--2--2----------------------|


        |---3--|                                                             
  E  E  E   E  E  Q    Q            
----------------------------|
----------------------------|
------------------2---------|
--------4p--2-----2----2----|
---------------4-------2----|
--2--2-----------------0----|



Chorus 2 into Bridge

    |----3----|          |--3--|       |----3----|    |-----3-----|     
    Q    Q    Q    E  E  E  E  E       Q    Q    Q    Q     Q     Q     
||---------------------------------||----------------------------------|
||---------------------------------||----------------------------------|
||*-------------------------------*||----------------------------------|
||*-7----7----8----9--x--x--x--x--*||--7----7----8----9----10----11----|
||--5----5----6----7--x--x--x--x---||--5----5----6----7-----8-----9----|
||---------------------------------||----------------------------------|


   H        Q     E  E     H         Q    Q       H.             E   E   
------------------------|----------------------|--3S~------------7p--5--|
------------------3-----|-----------------3----|------------------------|
---------------------4--|------------4---------|------------------------|
--12--------L\----------|--5~------------------|------------------------|
--10--------L\----------|----------------------|------------------------|
------------------------|----------------------|------------------------|


                          |--3--|  |--3--|  |--3--|  |--3--|    
  Q.     E   Q    Q       E  E  E  E  E  E  E  E  E  E  E  E    
--3------L/------------|--------------------------------------|
-------------0----2----|--------------------------------------|
-----------------------|--7--7--7--7--7--7--7--7--7--7--7--7--|
-----------------------|--7--7--7--7--7--7--7--7--7--7--7--7--|
-----------------------|--5--5--5--5--5--5--5--5--5--5--5--5--|
-----------------------|--------------------------------------|



Guitar Solo Riff 1

        |---3--|                     |---3--|             
  E  E  E   E  E  Q    Q       E  E  E   E  E  Q    Q     
----------------------------|----------------------------|
----------------------------|----------------------------|
------------------3----5----|------------------3---------|
--------5p--3-----3----5----|--------5p--3-----3----3----|
---------------5------------|---------------5-------3----|
--3--3----------------------|--3--3-----------------1----|


        |---3--|                                     
  E  E  E   E  E  Q    Q       Q    Q    Q    Q      
----------------------------|----------------------|
----------------------------|----------------------|
------------------3----5----|--3----5----3---------|
--------5p--3-----3----5----|--3----5----3----3----|
---------------5------------|-----------------3----|
--3--3----------------------|-----------------1----|



Outro ending riff

    |----3----|          |--3--|       |----3----|    |----3----|     
    Q    Q    Q    E  E  E  E  E       Q    Q    Q    Q    Q    Q     
||---------------------------------||--------------------------------|
||---------------------------------||--------------------------------|
||*-------------------------------*||--------------------------------|
||*-7----7----8----9--x--x--x--x--*||--7----7----8----9----7----8----|
||--5----5----6----7--x--x--x--x---||--5----5----6----7----5----6----|
||---------------------------------||--------------------------------|


  |----3----|    |----3----|                          
  Q    Q    Q    Q    Q    Q       W                  
--------------------------------|-------------------||
--------------------------------|-------------------||
--------------------------------|-------------------||
--9----7----8----9----7----8----|--9----------------||
--7----5----6----7----5----6----|--7----------------||
--------------------------------|-------------------||



Guitar - lead

            |---3--|        |---3--|     |------3------|                
    E   E   E   E  E  Q     E   E  E     Q    Q    E   E    Q.      E   
||------------------------------------|--------------------------------|
||------------------------------------|--------------------------------|
||--5b--5b--Lp--3-----3~--------------|-------3---------------------3--|
||-----------------5--------5p--3-----|--3---------5p--3--3g5~---------|
||---------------------------------5--|--------------------------------|
||------------------------------------|--------------------------------|


  |---3--|  |---3---|  |---3--|  |--3--|     |--3--|  |--3--|                
  E   E  E  E   E   E  E   E  E  E  E  E     E  E  E  E  E  E    Q.      E   
---------3--------------------------------|---------------------------------|
------3-----6p--3h--6--5p--3-----3--------|---------------------------------|
--5b--------------------------6-----5--3--|-----5--3------------------------|
------------------------------------------|--5--------5--3-----3g5~------5--|
------------------------------------------|-----------------5---------------|
------------------------------------------|---------------------------------|


  |---3--|   |---3--|  |---3---|   |---3---|   
  E   E  E   E  E   E  E   E   E   E   E   E   
----------------------------------------------|
----------------------------------------------|
--3p--0--5p--0--7p--0--9p--0--10p--0--12p--0--|
----------------------------------------------|
----------------------------------------------|
----------------------------------------------|


   |---3---|   |-3-|                    
   E   E   E   E   Q     Q.        E    
------------------10--------------10h--|
--10p--0--11p--0--------13b~-----------|
---------------------------------------|
---------------------------------------|
---------------------------------------|
---------------------------------------|


   |-------3-------|  |----3---|   |---3---|   |---3---|   
   E    S   S   S  S  E   E    E   E   E   E   E   E   E   
--11p--10h-11p-10----10-----------10--11--13--11--13--15--|
------------------13-----13p--10--------------------------|
----------------------------------------------------------|
----------------------------------------------------------|
----------------------------------------------------------|
----------------------------------------------------------|


   |---3---|   |---3---|           |-----3----|   
   E   E   E   E   E   E   Q       E     E    E   
--13--15--17--15--17--18---------------------15--|
--------------------------18b~-----Lb~---Lb------|
-------------------------------------------------|
-------------------------------------------------|
-------------------------------------------------|
-------------------------------------------------|


   |-------3------|  |---3---|   |-------3------|  |---3---|   
   E   S   S   S  S  E   E   E   E   S   S   S  S  E   E   E   
--17--15h-17p-15----15------15--17--15h-17p-15----15------15--|
-----------------18-----18---------------------18-----18------|
--------------------------------------------------------------|
--------------------------------------------------------------|
--------------------------------------------------------------|
--------------------------------------------------------------|


   |-------3------|  |---3---|                 
   E   S   S   S  S  E   E   E   Q.        E   
--17--15h-17p-15----15------------------------|
-----------------18-----18--15--18b~------18--|
----------------------------------------------|
----------------------------------------------|
----------------------------------------------|
----------------------------------------------|


   |----3---|   |----3---|   |---3---|   |----3----|   
   E    E   E   E   E    E   E   E   E   E    E    E   
------------------------------------------------------|
--18p--15------15-------------------------------------|
-----------18------18p--17--15------17--15b-----------|
--------------------------------17-----------17p--15--|
------------------------------------------------------|
------------------------------------------------------|


   |----3----|   |----3----|                 
   E    E    E   E    E    E   Q.       E    
---------------------------------------(0)--|
---------------------------------------(0)--|
--------------------------------------------|
--------------------------------------------|
--17p--16p--15--13h--15p--13----------------|
------------------------------15\-----------|


             |----3---|                   
   E    E    E    E   E   E   E   E   E   
-----------------------------------------|
-----------------------------------------|
--17b--17b---Lp--15------17--15~--L------|
---------------------17--------------17--|
-----------------------------------------|
-----------------------------------------|


   |---3---|   |----3---|                 
   E   E   E   E   E    E   Q.       E    
-----------------------------------------|
-----------------------------------------|
--------------15--------------------(0)--|
--15------15------17p--15--17~------(0)--|
------17---------------------------------|
-----------------------------------------|


   |----3----|   |----3----|   |----3----|   |----3----|   
   E    E    E   E    E    E   E    E    E   E    E    E   
----------------------------------------------------------|
-------15h--18-------15h--18-------15h--18-------15h--18--|
--17b-----------17b-----------17b-----------17b-----------|
----------------------------------------------------------|
----------------------------------------------------------|
----------------------------------------------------------|


   |----3----|   |----3----|                                           
   E    E    E   E    E    E   Q      E    E       H         H          
-----------------------------------------------||-----------17b--------|
-------15h--18-------15h--18---Lb~----L\-------||----------------------|
--17b-----------17b----------------------------||----------------------|
-----------------------------------------------||----------------------|
-----------------------------------------------||----------------------|
------------------------------------------12\--||--0-------------------|


   |------3------|                           
   Q      Q      Q      E     E    E    E    
--17b----17b----17b----17b~--17b---L\--12h--|
--------------------------------------------|
--------------------------------------------|
--------------------------------------------|
--------------------------------------------|
--------------------------------------------|


   |-------3-------|  |----3---|   |-------3-------|  |----3---|   
   E    S   S   S  S  E   E    E   E    S   S   S  S  E   E    E   
--15p--12h-15p-12----12-------------------------------------------|
------------------15-----15p--12--15p--12h-15p-12----12-----------|
--------------------------------------------------15-----15p--14--|
------------------------------------------------------------------|
------------------------------------------------------------------|
------------------------------------------------------------------|


   |---3---|   |----3----|                                       
   E   E   E   E    E    E   Q.      E      H          H         
----------------------------------------|-----------------------|
----------------------------------------|-------------15--------|
--12------14--12b--------------------0--|--14b------------------|
------14-----------14p--12--14\------0--|-----------------------|
----------------------------------------|-----------------------|
----------------------------------------|-----------------------|


             |----3---|                   
   E   E     E    E   E   E   E   E   E   
-----------------------------------------|
---L-------------------------------------|
------14pb---Lp--12------14--12~--L------|
---------------------14------------------|
-------------------------------------14--|
-----------------------------------------|


   |----3---|   |----3----|                 
   E    E   E   E    E    E   Q      Q      
------------------------------------(0)----|
------------------------------------(0)----|
-------------------------------------------|
--14p--12------12h--14p--12--14~-----------|
-----------14------------------------------|
-------------------------------------------|


   |-----3-----|            |--3--|      |-----3-----|                
   Q     Q     Q     E   E  E  E  E      Q     Q     Q     H          
-------------------------------------|-------------------------------||
--15----15----16----17\--------------|--15----15----16----17\--------||
-------------------------------------|-------------------------------||
--12----12----13----14\--x--x--x--x--|--12----12----13----14\--------||
-------------------------x--x--x--x--|-------------------------------||
-------------------------------------|-------------------------------||


                         |---3---|  |--3-|              
  Q.     E   H           E   E   E  Q    E  Q.      E   
----------------------|--------------------------------|
----------------------|--------------------------------|
---------4b--L--------|--Lb--Lp--2--4------------------|
----------------------|---------------------4~------4--|
----------------------|------------------4-------------|
----------------------|--------------------------------|


  |---3--|  |--3--|  |--3--|  |--3--|     |---3--|   |---3---|                 
  E   E  E  E  E  E  E  E  E  E  E  E     E   E  E   E   E   E   Q.       E    
---------------------------------------|---------------------------------(0)--|
---------------------------------------|---------------------------------(0)--|
--2b-----------------------------------|--------------------------------------|
------4--2-----4--2-----2--------------|--------------------------------------|
------------4--------4-----4--3--2--0--|--2p--0-------------------------------|
---------------------------------------|---------2p--0h--2p--0h--2~-----------|


  |---3--|  |--3--|         |---3---|     |--3--|  |---3--|                
  E   E  E  E  E  E  Q      E   E   E     E  E  E  E   E  E  E  E   Q      
---------2--L-----2--------------------|----------------------------------|
------2--------5-----5b~----5p--2h--5--|--2-----2-------------------------|
--4b-----------------------------------|-----5-----4p--2-----4--2~--L~----|
---------------------------------------|------------------4---------------|
---------------------------------------|----------------------------------|
---------------------------------------|----------------------------------|


  |--3--|  |---3--|  |---3--|  |--3--|     |--3--|  |---3--|              
  E  E  E  E   E  E  E   E  E  E  E  E     E  E  E  E  E   E  H           
----------------------------------------|-------------------------------||
-----2----------------------------------|-------------------------------||
--------4--2b-----4--2b-----------------|-------------------------------||
--4------------4---------4--2-----4--2--|-----2-------------------------||
-------------------------------4--------|--4-----4--3--2p--0------------||
----------------------------------------|---------------------2~--------||


Duration Legend
---------------
W - whole
H - half
Q - quarter
E - 8th
S - 16th
. - note dotted
|-n-|  - n-tuplets

Tablature Legend
----------------
L - tied note
x - dead note
g - grace note
h - hammer on
p - pull off
b - bend
br - bendRelease
pb - preBend
pbr - preBendRelease
brb - bendReleaseBend
S - shift slide
s - legato slide
/ -  slide into from below or out of upwards
\ -  slide into from above or out of downwards
~ - vibrato

Check my other tabs for Guitar Pro, Powertab, chords, guitar/bass text at
http://profile.ultimate-guitar.com/TexasFury/contributions/
Добавлено: 22.08.2015
Другие материалы по этой песне:

Страница создана 21.08.2015
http://primanota.ru/misc-unsigned-bands/sidewinder-my-country-chords.htm
Привет, Гость.
Предлагаем пройти революционный курс по гитаре.
Подарок от PrimaNota.Ru, забирай!