PrimaNota.ru - самый крупный в мире бесплатный архив песенных текстов, аккордов, табулатур и нот


Misc Unsigned Bands - Shelbyville - You Speak Like A Poet But You Fight Like One Too - таба

Регистрация Запомнить меня
Войти через:  Facebook Google Twitter Vk Yandex Mail.ru

Misc Unsigned Bands - Shelbyville - You Speak Like A Poet But You Fight Like One Too - таба

Печатать
Просмотров: 32
Artist: Shelbyville
Album: Manhattan
Song: You Speak Like A Poet, But You Fight Like One Too

Tuning: DADGBE

/ = SLIDE
h = HAMMER ON
p = PULL OFF
. = PALM MUTE


--------------------
Intro:
--------------------

Guitar 1
E|-----------------------------------------------------------|
B|-----------------------------------------------------------|
G|-----------------------------------------------------------|
D|-----9---6----9---6----6h7p6--------------------------2222-|
A|-----------------------------7------5/4p0----5/4p0----2222-|
D|-7-7---7----7---7----7----------0-0--------0--------0-2222-| x2
   . .   .    .   .    .          . .        .        .

E|--------------------------------------------------------------|
B|--------------------------------------------------------------|
G|--------------------------------------------------------------|
D|-----9---6h7----9---6h7----6h7p6-------------------------2222-|
A|--------------------------------7------5/4p0----5/4p0----2222-|
D|-7-7---7------7---7------7---------0-0--------0--------0-2222-| x2
   . .   .      .   .      .         . .        .        .


Guitar 2
E|-------|------------------|------------------|
B|-------|------------------|------------------|
G|-------|------------------|------------------|
D|---2-2-|-7777777777777777-|-------------2222-|
A|---2-2-|-7777777777777777-|-------------2222-|
D|-0-2-2-|-7777777777777777-|-0-0---0---0-2222-|
   .                          . .   .   .


--------------------
Verse:
--------------------

Guitar 1 & 2
E|--------------------------------|-------------------------|
B|--------------------------------|-------------------------|
G|--------------------------------|-------------------------|
D|-7-7---7-7-----0-0---0-0---0000-|-7-7---7-7-----0-0---0-0~|
A|-7-7---7-7-----0-0---0-0---0000-|-7-7---7-7-----0-0---0-0~|
D|-7-7---7-7-----0-0---0-0---0000-|-7-7---7-7-----0-0---0-0~|
                             ....                       .

E|------------------------------------------------------------------|
B|------------------------------------------------------------------|
G|-------------------------------------------------7777777777777777-|
D|-7-77777777777777000000000000000077777777777777777777777777777777-|
A|-7-77777777777777000000000000000077777777777777775555555555555555-|
D|-7-7777777777777700000000000000007777777777777777-----------------|
     ..............................................


Guitar 1
E|--------------------------------------------------|
B|--------------------------------------------------|
G|---------------------------------7777777777777777-|
D|---------------------------------7777777777777777-|
A|-0-0-0-2-2-2-4-4-4-7-7-7-4-4-4-5-5555555555555555-|
D|--------------------------------------------------|


--------------------
Chorus:
--------------------

Guitars 1 & 2
E|----------------------------------------------------------------|
B|----------------------------------------------------------------|
G|-44444444444444-77777777777777744444444444444499999999977776666-|
D|-44444444444444-777777777777777444444444444444------------------|
A|-22222222222222-55555555555555522222222222222277777777755554444-|
E|----------------------------------------------------------------| x2


Guitar 3
E|---------------------------------|
B|---------------------------------|
G|---------------------------------|
D|---------------------------------|
A|-0-0-7-0-4h5-0-7-0-4h5---4/5-5-5-|
E|-----------------------0---------| x4
   . .   .     .   .     .


--------------------
Verse 2:
--------------------

Guitar 1
E|-------------------------------------------------|
B|-------------------------------------------------|
G|-------------------------------------------------|
D|-7~----0~---0-0----------------------------------|
A|-7~----0~---0-0----------------------------------|
D|-7~----0~---0-0-77777777777766999000000000000000-|

E|-----------------------------------------------------------------|
B|-----------------------------------------------------------------|
G|-----------------------------------------------------------------|
D|-----7-----6-----------------------------------------------------|
A|-----------------7-----5-----4/5-----0---0h2---2---2/4---4---4/5-|
D|-7-7---7-7---7-7---7-7---7-7-----0-0---0-----0---0-----0---0-----|
   . .   . .   . .   . .   . .     . .   .     .   .     .   .

E|--------------------------------------------------|
B|--------------------------------------------------|
G|---------------------------------7777777777777777-|
D|---------------------------------7777777777777777-|
A|-0-0-0-2-2-2-5-5-5-7-7-7-4-4-4-5-5555555555555555-|
D|--------------------------------------------------|


--------------------
Chorus:
--------------------


--------------------
Bridge:
--------------------

Guitar 1
E|------------------------|
B|------------------------|
G|-9--9-----9--9--11---14-|
D|-9--7-----9--7---9---12-|
A|-7--7-----7--7---9---12-|
D|-7--7-----7--7---9---12-| x2

E|--------------------------------------------------------|
B|--------------------------------------------------------|
G|-999999999999999666667777766622222222222222222222222222-|
D|--------------------------------------------------------|
A|-777777777777777444445555544400000000000000000000000000-|
D|--------------------------------------------------------| x2


Guitar 2
E|------------------------------------------|
B|------------------------------------------|
G|-99999999999666667777777------------------|
D|-7777777777744444-------99999999111111111-|
A|-7777777777744444555555577777777777777777-|
D|-7777799999944444777766677777777777777777-| x2


--------------------
Chorus:
--------------------


--------------------
Outro:
--------------------

Guitar 1
E|-------------------------------------------------------------|
B|-------------------------------------------------------------|
G|-------------------------------------------------------------|
D|-7-7---7-7-----0-0---0-0---6h7p6-7-7---7-7-----0-0---0-0---0-|
A|-7-7---7-7-----0-0---0-0---------7-7---7-7-----0-0---0-0---0-|
E|-7-7---7-7-----0-0---0-0---------7-7---7-7-----0-0---0-0---0-|
                                                             .

E|----------------------------------------------------------|
B|----------------------------------------------------------|
G|----------------------------------------------------------|
D|-----9---6----9---6----6h7p6-------9---6----9---6---6h7p6-|
A|-----------------------------7----------------------------|
D|-7-7---7----7---7----7---------0-0---0----0---0---0-------|
   . .   .    .   .    .         . .   .    .   .   .

E|------------------------------------------------------------|
B|------------------------------------------------------------|
G|----------------------------------------------------------6-|
D|-----9---6----9---6----6h7p6-------9---6----9---6---6-7-9---|
A|-----------------------------7------------------------------|
D|-7-7---7----7---7----7---------0-0---0----0---0---0---------|
   . .   .    .   .    .         . .   .    .   .   .

E|--------------------------------------------------------------------|
B|--------------------------------------------------------------------|
G|--------------------------------------------------------------------|
D|-----9---6h7----9---6h7----6h7p6------------------------------------|
A|--------------------------------7------7---4h5----0---0h2---4---4h5-|
D|-7-7---7------7---7------7---------0-0---0------0---0-----0---0-----|
   . .   .      .   .      .         . .   .      .   .     .   .

E|-----------------------------------------------------------|  |---------------|
B|-----------------------------------------------------------|  |---------------|
G|--------------------------------------------6h7h6--9p6h7p6-|  |---------------|
D|-----9---6----9---6----6h7p6-------9---6-------------------|  |-6h7p6h9p6h7p6-|
A|-----------------------------7-----------------------------|  |---------------|
D|-7-7---7----7---7----7---------0-0---0----0----------------|  |---------------|repeat - fade out
   . .   .    .   .    .         . .   .    .
Добавлено: 03.09.2013
Другие материалы по этой песне:
  • Аккорды и текст

Страница создана 03.09.2013
http://primanota.ru/misc-unsigned-bands/shelbyville-you-speak-like-a-poet-but-you-fight-like-one-too-chords.htm
Привет, Гость.
Предлагаем пройти революционный курс по гитаре.
Подарок от PrimaNota.Ru, забирай!