PrimaNota.ru - самый крупный в мире бесплатный архив песенных текстов, аккордов, табулатур и нот


Misc Unsigned Bands - Shaun The Sheep Movie - Feels Like Summer - бас-таба

Регистрация Запомнить меня
Войти через:  Facebook Google Twitter Vk Yandex Mail.ru

Misc Unsigned Bands - Shaun The Sheep Movie - Feels Like Summer - бас-таба

Печатать
Просмотров: 129
Feels Like Summer
Taken from the soundtrack to Shaun The Sheep The Movie this is 
the opening song from Tim Wheeler. Tab by Bass 50611. 
Great Track, Great Movie.Comments at bass254@btinternet.com 

Intro:     .        .      .           .        .    .
G|------------------------------------------------------
D|-------h12------h14--------------h5/12------h14-------
A|-----------------------h10------------------------h10-
E|------------------------------------------------------

Verse:
G|--------------------------------------------------
D|--------------7-77---7-77-------------7-77---7-77-
A|-5-55---5-55-7------------7-77---7-77-------------
E|--------------------------------------------------

G|--------------------------------------------------
D|--------------7-77---7-77-------------5-55---5-55-
A|-5-55---5-55-7------------7-77---7-77-------------
E|-------------------------------------------------

Chorus 1:
G|--------------------------------------------------------------7-4----
D|--------------5-55---5-55----------------------5-55--------------7-4-
A|-5-55-5-7-77-7--------------5-55-5-7-77---3-33------5-55---5-5-------
E|---------------------------------------------------------------------

Repeat Verse:

Chorus 2:
G|---------------------------------------------------
D|--------------5-55---5-55---------------------5-55-
A|-5-55-5-7-77-7-------------5-55-5-7-77---3-33------
E|---------------------------------------------------

Bridge:                                                     (Pause)
G|---------------------------------------------------------------
D|---------------------------------------------------------------
A|-8-88---8-88---5-55---5-55--6-7-8-88---8-88---5-55---5-55---12-
E|---------------------------------------------------------------

Chorus 3:
G|----------------------------------------------------
D|--------------5-55---5-55---------------5-55---5-55-
A|-5-55-5-7-77-7-------------5-55-5-7-77-7------------
E|----------------------------------------------------

Outro:
G|--------------------------------------------------------
D|--------------5-55----------------------------5-55------
A|-5-55-5-7-77-7-------2-3-4-5-55-5-7-77---3-33---------5-
E|--------------------3-----------------------------------
Добавлено: 22.08.2015
Другие материалы по этой песне:
  • Аккорды и текст

Страница создана 22.08.2015
http://primanota.ru/misc-unsigned-bands/shaun-sheep-movie-feels-like-summer-chords.htm
Привет, Гость.
Предлагаем пройти революционный курс по гитаре.
Подарок от PrimaNota.Ru, забирай!