PrimaNota.ru - самый крупный в мире бесплатный архив песенных текстов, аккордов, табулатур и нот


Misc Unsigned Bands - Shadows End - Rise Up - таба, видео

Регистрация Запомнить меня
Войти через:  Facebook Google Twitter Vk Yandex Mail.ru

Misc Unsigned Bands - Shadows End - Rise Up - таба, видео

Печатать
Просмотров: 57
we dont have lyrics yet so yeah...

Shadows End is a band i have been recently putting together, hopefully ill
get some videos of us up on youtube in the next few months.


.=palm mute
~=hold(no vibratos in this song unless you feel like adding them places)
x=mute with right hand(press down on strings in front of pickup or
                       on an acoustic, in the middle of bridge and opening)
X\=pickslide down
^=bend string

played fairly slow                      fast sweep the 022
|----------------------------------------|
|----------------------------------------|
|----------------------------------------|
|--9---7---9---5---7---10--2--4-5--4----2|
|-7---5---7---3---5---8----2------------2|x2
|0---0---8---4---6---9-----0--2-3--2----0|
 ... ... ... ... ... ...
|------------------------|
|------------------------|
|------------------------|
|2-3-3/5-3-2-3-3-35--8\7-|
|--------------1-13--6\5-|
|------------------------|

         hold 0 note
|-------------------------------|
|-------------------------------|
|-------------------------------|
|---7-10-9-5-0-7-10-9---------9~|
|0-(0~~~~~~~~~~~~~~~~)10-10\9-7~|
|-------------------------------|

|---------------------------------------------------------------|
|---------------------------------------------------------------|
|---------------------------------------------------------------|
|-9-9-9-9-9-9-9-9-7-7-7-7-7-7-7-7-5-5-5-5-5-5-5-5-x-2-x-2-x-2-x-|x4
|7-7-7-7-7-7-7-7-5-5-5-5-5-5-5-5-3-3-3-3-3-3-3-3--x---x---x---x-|
|---------------------------------------------------------------|
 ................................................
      hit the 0 very hard make it last
|--------------------|
|--------------------|
|--------------------|
|-3-2-0~-------------|
|--------------------|
|--------------------|

   tap on to make harmonic not the squeeling harmonic**
|--------------------|
|--------------------|
|-----*12-----*12~---|
|h*12----------------|
|---------*12--------|
|--------------------|

heres the chorus-harmonics aswell

|-*19-*12-------*19-----*12----|
|---------*12~------*19-----*12| x4
|------------------------------|
|------------------------------|
|------------------------------|
|------------------------------|

soft solo
|----------------------------------------|
|----------------------------------------|
|----------------------------------------|
|12-11-9--9-11-12--12-11-9--7--9-9/12-11-|
|----------------------------------------|
|----------------------------------------|

|--------------------------|
|--------------------------|
|--------------------------|
|9-7----5------------------|
|---------5-3-2-3----------|
|-----------------0--0h2h3-|

|--------------------|
|--------------------|
|--------------------|
|----7--9^-7--5-7----|
|5-7-5---------------|
|3-5-----------------|

|----------------||-----------|
|----------------||-----------|
|----------------||-----------|
|5-4-------------||5-3-2---2--|both x2
|----5-3-2--3----||------3----|
|----------------||-----------|

slowly speeds up on each repeat
|----------------|   |-|
|----------------|   |-|
|----------------|   |-|
|5-5-5-5-5-5-555-|x4 |5|
|3-3-3-3-3-3-333-|   |3|
|----------------|   |-|

vocals:"1,2,3,4!"
4 cymbal crashes

|----------------|
|----------------|
|----------------|
|----------------|
|33----33----33--|x4
|1111111111111111|
 ................

|----------------|
|----------------|
|----------------|
|----------------|
|22----22----22--|x4
|0000000000000000|
 ................

|----------------|
|----------------|
|----------------|
|----------------|
|44----44----44--|x4
|2222222222222222|
 ................

|----------------|
|----------------|
|----------------|
|----------------|
|33----33----33--|x4
|5555555555555555|
 ................

rythm slows not tempo
|----------------|
|----------------|
|----------------|
|----------------|
|4-----4-----4---|x2
|2-2-2-2-2-2-2-2-|

|----------------|
|----------------|
|----------------|
|----------------|
|2-----2-----2---|x4 hold 2 0 last repeat
|0-----2-----0---|

|----------------|
|----------------|
|----------------|
|----------------|
|-2----2----2----|
|-0----0----0----|

|----------------|
|----------------|
|----------------|
|-----X\---------|
|---X\-----------|
|-X\-------------|

|-------------|
|-------------|
|-------------|
|5--10--9--7--|x3
|5--10--9--7--|
|0--0---0--0--|
        tremelo very fast
|----0/13--15-17-12--14-15--11-13-14----12~|
|------------------------------------------|repeat tremelo part from
|------------------------------------------|the slide twice
|(7)---------------------------------------|
|(7)---------------------------------------|
|(0)---------------------------------------|

                                taping style pull off(flicking thing)
|-12-12-12-12\3-3-2-3-5-3-2-3-3p2p0------------|
|----------------------------------------------|
|----------------------------------------------|
|----------------------------------------------|
|----------------------------------------------|
|----------------------------------------------|

|-*19-*12-------*19-----*12----|
|---------*12~------*19-----*12| x2
|------------------------------|
|------------------------------|
|------------------------------|
|------------------------------|

 no outro yet. and yes! i know this isnt an official song
i know it will be declined but it is going to be out first song and it sounds good to 
so i dont care i was just wanting a spot for my band later on
Добавлено: 16.01.2014
Другие материалы по этой песне:
  • Аккорды и текст

Страница создана 16.01.2014
http://primanota.ru/misc-unsigned-bands/shadows-end-rise-up-chords.htm
Привет, Гость.
Предлагаем пройти революционный курс по гитаре.
Подарок от PrimaNota.Ru, забирай!