PrimaNota.ru - самый крупный в мире бесплатный архив песенных текстов, аккордов, табулатур и нот


Misc Unsigned Bands - Sewerside Mall - Instrumental Blue Rock - бас-таба

Регистрация Запомнить меня
Войти через:  Facebook Google Twitter Vk Yandex Mail.ru

Misc Unsigned Bands - Sewerside Mall - Instrumental Blue Rock - бас-таба

Печатать
Просмотров: 100
-------------------------------------------------------------------------------
                             INSTRUMENTAL BLUES ROCK - Sewerside Mall
-------------------------------------------------------------------------------
Tabbed by: ronad2
E-mail: manupremruthu@yahoo.com

Tuning:Standard- EADG
RIFF 1-
   1 2 3 4   1 2 3 4   1 2 3 4   1 2 3 4   1 2 3 4   1 2 3 4   1 2 3 4   1 2 3 4
G|---------|---------|---------|---------|---------|---------|---------|---------|
D|---------|---------|---------|---------|---------|---------|---------|---------|   X REPEAT
A|-0-0-0-0-|-3-3-3-3-|-5-5-5-5-|-5-7-5-3-|-0-0-0-0-|-3-3-3-3-|-5-5-5-5-|-5-7-5-3-|
E|---------|---------|---------|---------|---------|---------|---------|---------|

RIFF 2-
   1 2 3 4   1 2 3 4   1 2 3 4   1 2 3 4   1 2 3 4   1 2 3 4   1 2 3 4   1 2 3 4
G|---------|---------|---------|---------|---------|---------|---------|---------|
D|---------|---------|---------|---------|---------|---------|---------|---------|
A|-0-0-3-0-|-0-0-3-0-|-0-0-3-0-|-5-7-5-3-|-0-0-3-0-|-0-0-3-0-|-0-0-3-0-|-5-7-5-3-|
E|---------|---------|---------|---------|---------|---------|---------|---------|
                                                                                     X REPEAT
G|---------|---------|---------|---------|---------|---------|---------|---------|
D|---------|---------|---------|---------|---------|---------|---------|---------|   
A|-0-0-0-0-|-3-3-3-3-|-5-5-5-5-|-5-7-5-3-|-0-0-0-0-|-3-3-3-3-|-5-5-5-5-|-5-7-5-3-|
E|---------|---------|---------|---------|---------|---------|---------|---------|

YOU CAN TRY TO ADD RANDOM SLIDES AND HAMMER ONS TO MAKE IT SOUND BETTER.
OR YOU CAN JUST DOUBLE THE NOTES FREQUENTLY TO MAKE A BEAT
LIKE THIS -
   1 . a .   2 . a .   3 . a .   4 . a .   1 . a .   2 . a .   3 . a .   4 . a . 
G|---------|---------|---------|---------|---------|---------|---------|---------|
D|---------|---------|---------|---------|---------|---------|---------|---------|   
A|-0-0-0-0-|-3---0---|-0---0-0-|-3-3-0---|-0-0---0-|-3---0-0-|-5-5-7---|-5-5-3---|
E|---------|---------|---------|---------|---------|---------|---------|---------|

["a" means half beat]


| /  slide up
| \  slide down
| h  hammer-on
| p  pull-off
| ~  vibrato
| +  harmonic
| x  Mute note
===============================================================================
Добавлено: 22.08.2015
Другие материалы по этой песне:
  • Аккорды и текст

Страница создана 22.08.2015
http://primanota.ru/misc-unsigned-bands/sewerside-mall-instrumental-blue-rock-chords.htm
Привет, Гость.
Предлагаем пройти революционный курс по гитаре.
Подарок от PrimaNota.Ru, забирай!