PrimaNota.ru - самый крупный в мире бесплатный архив песенных текстов, аккордов, табулатур и нот


Misc Unsigned Bands - Secret Lover - Jan Amo - таба

Регистрация Запомнить меня
Войти через:  Facebook Google Twitter Vk Yandex Mail.ru

Misc Unsigned Bands - Secret Lover - Jan Amo - таба

Печатать
Просмотров: 59
-------------------------------------------------------------------------------
                             Seceret lover - Jan Amo
-------------------------------------------------------------------------------
Tabbed by:Jan Amo
Email:janamo70@live.com 

Tuning:Standar



e|---------2----------------|---------3--------------------------------------|
B|-----3---------------3----|------3-------------3---------------------------|
G|--2---------2x----2-------|---0--------2x---0------------------------------|2x
D|--------------------------|------------------------------------------------|
A|--------------------------|------------------------------------------------|
E|--------------------------|------------------------------------------------|

e|--------0--------------|-------------0-------------|------0----------------|
B|-----3-------------3---|---------3-------------3---|----3----------3-------|
G|--2-------2x----2------|------0--------2x---0------|--2-----2x--2----------|
D|-----------------------|---------------------------|-----------------------|
A|-----------------------|---------------------------|-----------------------|
E|-----------------------|---------------------------|-----------------------|

e|-------2~------------|
B|-----3---------------|
G|---2-----------------|
D|---------------------|
A|---------------------|
E|---------------------|




Intro: D-A-G-A

Verse 1
   D           A
Sweet as a Chocolate
   G         A
Cute as A teddy bear
    D          A 
Beautiful like a Flower
     G         A
I Love her blonde Hair

Pre-Chorus:
   Em     G
Time Has Come
   Em         G           Em                A(strum once)
Things Have Change, And i just want you to know

Chorus:
                D                           A
That i cant breathe and my heart just wont beat and
                    Em
I find it hard, to know that you're with some other guy,
      G                   A
and you're not here with me tonight
      D                      A          Em       
Explanations ruined my expectation, I guess we have to start from scratch
              G                A
well im gonna be your secret lover tonight

(Intro)

Verse:(Same chords from verse1)
Got Problem with her Parents,Not big fan of guys
How long should i keep this feeling
Or should i finally let it go

Pre-Chorus:
  Em       G        Em                    A
I Cant decide, I just wish that you were by my side

(Chorus)

Bridge:D-A-G-Bm-A
        D     (5 strums...then stop)      
Its been 2 years since we met

time to tell you how i feel
        A  (5 strums...then stop)               G
hopefully you'll get what i really mean, this time
   A
this time
                    D  (5 strums...then stop)    
but then you said "It'll never work, coz you're such a jerk.
        A(5 strums...then stop)               G           A (long chord)
Go find a girl that will love you for sure this time...this time..

Chorus:
                D  (hold)                         A (hold)   
That i cant breathe and my heart just wont beat and
                    Em (hold)   
I find it hard, to know that you're with some other guy,
      G   (strum once)               
and you're not here with me tonight
      D                      A          Em       
Explanations ruined my expectation, I guess we have to start from scratch
              G                A                Em               A
well im gonna be your secret lover tonight, i'll always be your lover...

tonight...(play riff below after "tonight")


e|---------2----------------|---------3--------------------------------------|
B|-----3---------------3----|------3-------------3---------------------------|
G|--2---------2x----2-------|----0------2x---2-------------------------------|
D|--------------------------|------------------------------------------------|
A|--------------------------|------------------------------------------------|
E|--------------------------|------------------------------------------------|

e|--------0--------------|-------------0-------------|------0----------------|
B|-----3-------------3---|---------3-------------3---|----3----------3-------|
G|--2-------2x----2------|------0--------2x---0------|--2-----2x--2----------|
D|-----------------------|---------------------------|-----------------------|
A|-----------------------|---------------------------|-----------------------|
E|-----------------------|---------------------------|-----------------------|

e|-------2~------------|
B|-----3---------------|
G|---2-----------------|
D|---------------------|
A|---------------------|
E|---------------------|



Добавлено: 20.11.2013
Другие материалы по этой песне:
  • Аккорды и текст

Страница создана 20.11.2013
http://primanota.ru/misc-unsigned-bands/secret-lover-jan-amo-chords.htm
Привет, Гость.
Предлагаем пройти революционный курс по гитаре.
Подарок от PrimaNota.Ru, забирай!