PrimaNota.ru - самый крупный в мире бесплатный архив песенных текстов, аккордов, табулатур и нот


Misc Unsigned Bands - Second Place - War Behind Walls - таба

Регистрация Запомнить меня
Войти через:  Facebook Google Twitter Vk Yandex Mail.ru

Misc Unsigned Bands - Second Place - War Behind Walls - таба

Печатать
Просмотров: 73
-------------------------------------------------------------------------------
                             Second Place - WBW
-------------------------------------------------------------------------------
Tabbed by: Matthew Wilson
E-mail:

Tuning: Drop A#

Not completed, will update as more gets written.
Intro
e|-----------------------------------------------------------------------------------|
B|-----------------------------------------------------------------------------------|
G|-----------------------------------------------------------------------------------|
D|-----------------------------------------------------------------------------------|
A|-----------------------------------------------------------0 00 00-000-00-00-------|
E|-88888888/55555555-[1st time: 0000000  33333 h5}--{2nd time: - 1 11 11-111-11-11---|
 Verse 1
e|--------------------------------------------------------------------------------|
B|--------------------------------------------------------------------------------|
G|--------------------------------------------------------------------------------|
D|--------------------------------------------------------------------------------|
A| 0  0000--0 0 0 0 00--000--1-4-3---0 000---00 000-------------------------------|
E|  0  0000--0 0 0 0 00--000--1-4-3---0 000---00 000---00 1/7---------------------|

e|----------------------------------------------------------------------------------|
B|----------------------------------------------------------------------------------|
G|--------------------------777--5-8------------------------------------------------|
D|  0------8------ 5-----------------------0-----8-----8-7-5-7-5-3-1----------------|
A|- 0--x5- 8-x7-- -5--x7----555--3-6-----  0-x5--8-x7--8-7-5-7-5-3-1----------------|
E|--0 -       8-----   5-----------------------0-----8-----8-7-5-7-5-3-1------------|

e|---------------------------|
B|---------------------------|
G|---------------------------|
Dl-0-0 000---000-----1-4-3---|
A|  0-0-000-- 000-----1-4-3--|
E|   0-0-000--000-----1-4-3--|

e|-------------------------|
B|-------------------------|
G|-------------------------|
D|-------------------------|
A|-------------------------|
E|-------000 875 00 35 x3--|

e|---------------------------------------------------------------------------|
B|---------------------------------------------------------------------------|
G|---------------------------------------------------------------------------|
D|---------------------------------------------------------------------------|
A|---------------------------------------------------------------------------|
E|---------------------------------------------------------------------------|

e|---------------------------------------------------------------------------|
B|---------------------------------------------------------------------------|
G|---------------------------------------------------------------------------|
D|---------------------------------------------------------------------------|
A|---------------------------------------------------------------------------|
E|---------------------------------------------------------------------------|

e|---------------------------------------------------------------------------|
B|---------------------------------------------------------------------------|
G|---------------------------------------------------------------------------|
D|---------------------------------------------------------------------------|
A|---------------------------------------------------------------------------|
E|---------------------------------------------------------------------------|


************************************

| /   slide up
| \   slide down
| h   hammer-on
| p   pull-off
| ~   vibrato
| +   harmonic
| x   Mute note
| b   Bend
| pb  Pre-bend
| br  Bend release
| pbr Pre-bend release
| brb Bend release bend

************************************
Добавлено: 17.11.2013
Другие материалы по этой песне:
  • Аккорды и текст

Страница создана 17.11.2013
http://primanota.ru/misc-unsigned-bands/second-place-war-behind-walls-chords.htm
Привет, Гость.
Предлагаем пройти революционный курс по гитаре.
Подарок от PrimaNota.Ru, забирай!