PrimaNota.ru - самый крупный в мире бесплатный архив песенных текстов, аккордов, табулатур и нот


Misc Unsigned Bands - Scarlet A Newman - Thomas Bumblerock - бас-таба

Регистрация Запомнить меня
Войти через:  Facebook Google Twitter Vk Yandex Mail.ru

Misc Unsigned Bands - Scarlet A Newman - Thomas Bumblerock - бас-таба

Печатать
Просмотров: 88
Here's bassline to the 30 second snippet of the song featured on the 2013 Apple iPhone TV advert.


      Q    E   Q.      Q       Q    E   Q.     Q        Q    E   Q.      Q     
-------------------------|-----------------------|-------------------------|
-------------------------|-----------------------|-------------------------|
--10-------10------------|--8-------10------8----|--10-------10------------|
-------------------10----|-----------------------|-------------------10----|


  Q    E   Q.     Q        Q    E   Q.      Q       Q    E   Q.     Q     
-----------------------|-------------------------|-----------------------|
-----------------------|-------------------------|-----------------------|
--8-------10------8----|--10-------10------------|--8-------10------8----|
-----------------------|-------------------10----|-----------------------|


   Q    H.              W                    Q    E   Q.      Q     
---------------------|-------------------|-------------------------|
---------------------|-------------------|-------------------------|
--10-----------------|-------------------|--10-------10------------|
---------------------|-------------------|-------------------10----|


  Q    E   Q.     Q        Q    E   Q.      Q       Q    E   Q.     Q     
-----------------------|-------------------------|-----------------------|
-----------------------|-------------------------|-----------------------|
--8-------10------8----|--10-------10------------|--8-------10------8----|
-----------------------|-------------------10----|-----------------------|


   Q    E   Q.      Q       Q    E   Q.     Q        Q    H.            
-------------------------|-----------------------|---------------------|
-------------------------|-----------------------|---------------------|
--10-------10------------|--8-------10------8----|---------------------|
-------------------10----|-----------------------|--10-----------------|


  W                    Q    E   Q.      Q       Q    E   Q.     Q     
-------------------|-------------------------|-----------------------|
-------------------|-------------------------|-----------------------|
-------------------|--10-------10------------|--8-------10------8----|
-------------------|-------------------10----|-----------------------|


   Q    E   Q.      Q       Q    E   Q.     Q        Q    E   Q.      Q     
-------------------------|-----------------------|-------------------------|
-------------------------|--8-------10------8----|-------------------------|
--10-------10------------|-----------------------|--10-------10------------|
-------------------10----|-----------------------|-------------------10----|


  Q    E   Q.     Q        Q    H.               Q    H.             
-----------------------|---------------------|---------------------||
-----------------------|---------------------|---------------------||
--8-------10------8----|---------------------|--10-----------------||
-----------------------|--10-----------------|---------------------||
Добавлено: 11.10.2013
Другие материалы по этой песне:
  • Аккорды и текст

Страница создана 11.10.2013
http://primanota.ru/misc-unsigned-bands/scarlet-a-newman-thomas-bumblerock-chords.htm
Привет, Гость.
Предлагаем пройти революционный курс по гитаре.
Подарок от PrimaNota.Ru, забирай!