PrimaNota.ru - самый крупный в мире бесплатный архив песенных текстов, аккордов, табулатур и нот


Misc Unsigned Bands - Save Me Hollywood - We Are One Tonight - таба

Регистрация Запомнить меня
Войти через:  Facebook Google Twitter Vk Yandex Mail.ru

Misc Unsigned Bands - Save Me Hollywood - We Are One Tonight - таба

Печатать
Просмотров: 58
Song Title:   We Are One Tonight
Artist/Band:  Save Me Hollywood
Tabbed By:    Pauz Prima (primesenthyx@yahoo.com)

--------------------------------------------------------------------------------------------

INTRO:

Guitar 1:

|-------------------------------------------------------------------------------|
|-------------------------------------------------------------------------------|
|-------------------------------------------------------------------------------|
|-66-88-44-66-666-6~-66-88-44~~--66-88-44-66-666-6~-66-88-8/10~~--66-666-666-66-|
|-66-88-44-66-666-6~-66-88-44~~--66-88-44-66-666-6~-66-88-6/8~~~--66-666-666-66-|
|-44-66-22-44-444-4~-44-66-22~~--44-66-22-44-444-4~-44-66---------44-444-444-44-|


Guitar 2:

|---------------------------------------------------------------------------4---4---4---4---|
|--------------------------------------------------------------------------4-4-4-4-4-4-4-4~-|
|-88-1010-66-88-888-8~-88-1010-66~~--88-1010-66-88-888-8~-88-1010-6/10~~--6---6---6---6-----|
|-------------------------------------------------------------------------------------------|
|-66-8-8--44-66-666-6~-66-8-8--44~~--66-8-8--44-66-666-6~-66-8-8--4/8~~---------------------|
|-------------------------------------------------------------------------------------------|


VERSE 1: Bb-G#-F#-F (2x)

|--------------------------------------------------------------|
|--------------------------------------------------------------|
|--------------------------------------------------------------|
|----8-8-----8-8-8888-8----6-6-----6-6-6666-6------------------|
|-88-8-8-888-8-8-8888-8-66-6-6-666-6-6-6666-6-------3-2---4/6~-|
|-66-----666-----6666-6-44-----444-----4444-4-2-1-2-----3------|
  **     ***           **      ***

|----------------------------------------------------------------------------------|
|----------------------------------------------------------------------------------|
|----------------------------------------------------------------------------------|
|----8-8-----8-8-8888-8----6-6-----6-6-6666-6--------------------------------------|
|-88-8-8-888-8-8-8888-8-66-6-6-666-6-6-6666-6-------3-2---4/6~~--------3-2---4/6~~-|
|-66-----666-----6666-6-44-----444-----4444-4-2-1-2-----3--------2-1-2-----3-------|
  **     ***           **      ***

REFRAIN: Bb-G#-F-Eb-(C#)

Guitar 1:

|----------------------------------------------------|
|----------------------------------------------------|
|---------------------------------8/10-101010-88-6~~-|
|-8-8-888-8-8-888-6-6-666-6-6-666--------------------|
|-8-8-888-8-8-888-6-6-666-6-6-666-6/8--8-8-8--66-4~~-|
|-6-6-666-6-6-666-4-4-444-4-4-444--------------------|

Guitar 2:

|--------------------------------------------------------------|
|--------------------------------------------------------------|
|-10-10-101010-10-10-101010-8-8-888-8-8-888-8/10-101010-88-6~~-|
|--------------------------------------------------------------|
|-8--8--8-8-8--8--8--8-8-8--6-6-666-6-6-666-6/8--8-8-8--66-4~~-|
|--------------------------------------------------------------|


CHORUS: C#-Bb-F#-F-F# (2x)

|----------------------------------------------------------------------|
|----------------------------------------------------------------------|
|----------------------------------------------------------------------|
|-6666666666666666-8888888888888888-4444444444444444-33333333-44444444-|
|-4444444444444444-8888888888888888-4444444444444444-33333333-44444444-|
|------------------6666666666666666-2222222222222222-11111111-22222222-|


INTERLUDE:

Guitar 1:

|--------------------------------------------------------------------|
|-------------14-14~~------------------------------------------------|
|--------------------------------------------------------------------|
|-66-88-44-66-11-11~~--66-88-8/10~~--66-88-44-66-666-6~-66-88-8/10~~-|
|-66-88-44-66----------66-88-6/8~~~--66-88-44-66-666-6~-66-88-6/8~~~-|
|-44-66-22-44----------44-66---------44-66-22-44-444-4~-44-66--------|

Guitar 2:

|---------------------------------------------------------------------|
|---------------------------------------------------------------------|
|-------------6-6~~-88-1010-6/10~~-88-1010-66-88-888-8~-88-1010-6/10~-|
|---------------------------------------------------------------------|
|-------------4-4~~-66-8-8--4/8~~~-66-8-8--44-66-666-6~-66-8-8--4/8~~-|
|---------------------------------------------------------------------|


VERSE 2: Bb-G#-F#-F (2x)

Guitar 1

|---------------------------|
|-14-14-14-14-14-14-14-14~~-|
|---------------------------|
|-11-11-11-11-11-11-11-11~~-|
|---------------------------|
|---------------------------|

Guitar 1 & 2:

|------------------------------------------------------------------------------|
|------------------------------------------------------------------------------|
|------------------------------------------------------------------------------|
|----8-8-----8-8-8888-8----6-6-----6-6-6666-6----------------------------------|
|-88-8-8-888-8-8-8888-8-66-6-6-666-6-6-6666-6-------3-2---4-3-------3-2---4/6~-|
|-66-----666-----6666-6-44-----444-----4444-4-2-1-2-----3-----2-1-2-----3------|
  **     ***           **      ***

|----------------------------------------------------------------------------------|
|----------------------------------------------------------------------------------|
|----------------------------------------------------------------------------------|
|----8-8-----8-8-8888-8----6-6-----6-6-6666-6--------------------------------------|
|-88-8-8-888-8-8-8888-8-66-6-6-666-6-6-6666-6-------3-2---4/6~~--------3-2---4/6~~-|
|-66-----666-----6666-6-44-----444-----4444-4-2-1-2-----3--------2-1-2-----3-------|
  **     ***           **      ***


Repeat REFRAIN & CHORUS


BRIDGE:

|------------------------------|
|------------------------------|
|-6-6~~--10-10~~--3-3~~--3-3~~-|
|-6-6~~--10-10~~--3-3~~--3-3~~-|
|-4-4~~--8--8~~~--1-1~~--1-1~~-|
|------------------------------|

i-mute nyo na lang ung mga "6" dito..

|--------------------------------------------------------------------------------------|
|---4---4---4---4---4---4---4---4---4---4---4---4---4---4---4--44444444444444444444444-|
|-6---6---6---6---6---6---6---6---6---6---6---6---6---6---6----66666666666666666666666-|
|--------------------------------------------------------------------------------------|
|--------------------------------------------------------------------------------------|
|--------------------------------------------------------------------------------------|
CHORUS:

Guitar 1:

|----------------------------------------------------------------------------|
|----------------------------------------------------14-141414141414141414~~-|
|-6-6-6666-888-10-6-10~-10101010101010--131313-15-10-------------------------|
|----------------------------------------------------11-111111111111111111~~-|
|-4-4-4444-666-8--4-8~~-8-8-8-8-8-8-8---111111-13-8--------------------------|
|----------------------------------------------------------------------------|


CHORUS: C#-Bb-F#-F-F# (3x)

Guitar 1 & 2:

|----------------------------------------------------------------------|
|----------------------------------------------------------------------|
|----------------------------------------------------------------------|
|-6666666666666666-8888888888888888-4444444444444444-33333333-44444444-|
|-4444444444444444-8888888888888888-4444444444444444-33333333-44444444-|
|------------------6666666666666666-2222222222222222-11111111-22222222-|


OUTRO: C#-Bb

Guitar 1:

|-------------|
|-------------|
|-6-6~~-------|
|-6-6~~--8~~~-|
|-4-4~~--8~~~-|
|--------6~~~-|

Guitar 2:

|--------------|
|--------------|
|-6-6~~--10~~~-|
|-6-6~~--10~~~-|
|-4-4~~--8~~~~-|
|--------------|


~ - let ring
* - palm mute
/ - slide up

---------------------------------------------------------------------------------------

SenthyX Zone
Senthyx Band
Добавлено: 27.07.2013
Другие материалы по этой песне:
  • Аккорды и текст

Страница создана 27.07.2013
http://primanota.ru/misc-unsigned-bands/save-me-hollywood-we-are-one-tonight-chords.htm
Привет, Гость.
Предлагаем пройти революционный курс по гитаре.
Подарок от PrimaNota.Ru, забирай!