PrimaNota.ru - самый крупный в мире бесплатный архив песенных текстов, аккордов, табулатур и нот


Misc Unsigned Bands - Saturday Night At The Apollo - Here With Me - таба

Регистрация Запомнить меня
Войти через:  Facebook Google Twitter Vk Yandex Mail.ru

Misc Unsigned Bands - Saturday Night At The Apollo - Here With Me - таба

Печатать
Просмотров: 40
-------------------------------------------------------------------------------
                             Here With Me - Saturday Night At the Apollo
-------------------------------------------------------------------------------
Tabbed by: Brandon Farrell
Email: brn2sk8182@hotmail.com

This is my first tab so I hope you all enjoy. This is a great song by an
awesome band that isn't all that well known. Hope you guys like the song
Email me if there is anything wrong with this tab.

Tuning:EADGBe

Guitar 1 

Intro and chorus

 Play this first for intro         then repeat this x 4
e|------------12---------| |------------12---------10---------9----------|
B|-10-10-9-10----10-9-10-| |-10-10-9-10----10-9-10----10-9-10---10-9-10--|
G|-----------------------| |---------------------------------------------|
D|-----------------------| |---------------------------------------------|
A|-----------------------| |---------------------------------------------|
E|-----------------------| |---------------------------------------------|
then
e|-0-0-9-0-7-0-10-0-9-0-5-0-7-0-9-0-0-0-9-0-7-0-10-0-9-0-5-0-7-0-5-0-----|
B|-----------------------------------------------------------------------|
G|-----------------------------------------------------------------------|
D|-----------------------------------------------------------------------|x4
A|-----------------------------------------------------------------------|
E|-----------------------------------------------------------------------|


Verse:
 Play twice                    1st     2nd
e|----------------------------|------|--------------12-------------|
B|----------------------------|------|---10-10-9-10----10-9-10-----|
G|----------------------------|------|-----------------------------|
D|-7-x16--6-x16--5-x16--11-x8-|-9-x8-|-----------------------------|
A|-5------4------7-------9----|-7----|-----------------------------|
E|----------------------------|------|-----------------------------|
All Palm Muted


Interlude:

First repeat the second half of the chorus then:

e|-5-0-4-0-5-0-7-0-5-0-4-0-5-0-10-0------|
B|---------------------------------------|
G|---------------------------------------|
D|---------------------------------------|x4
A|---------------------------------------|
E|---------------------------------------|

End on
e|--------|
B|--------|
G|--------|
D|-7~-----|
A|-7~-----|
E|-5~-----|



guitar 2

Intro/chorus                    these are 11's not 1's
e|------------------------------------------------------|
B|------------------------------------------------------|
G|----------------------7777-7777-11111111/99999999-----|
D|--7777-7777-2222-2222-7777-7777-11111111/99999999-----|
A|--7777-7777-2222-2222-5555-5555-99999999/77777777-----|
E|--5555-5555-0000-0000---------------------------------|

e|---------------------------------------|
B|---------------------------------------|
G|--------------7-----11----9------------|
D|-7------2-----7-x16-11-x8-9-x8---------|
A|-7-x16--2-x16-5------9----7------------|
E|-5------0------------------------------|

On Final chorus you only play this second part

Verse:
e|---------------------------------------|
B|---------------------------------------|
G|---------------------------------------|
D|-7-x16--6-x16--7-x16--11-x8--9x8-------|x2
A|-5------4------5-------9-----7---------|
E|---------------------------------------|
All Palm Muted

Interlude
e|-----------------|  |------------------------------|
B|-----------------|  |------------------------------|
G|-----------------|  |-------------------7777-------|
D|-7~--7~--7~--7~--|x1|----7777-2222-5555-7777-------| x4
A|-7~--7~--7~--7~--|  |----7777-2222-5555-5555-------|
E|-5~--5~--5~--5~--|  |----5555-0000-3333------------|
                           **** **** **** ****
End on
e|--------|
B|--------|
G|--------|
D|-7~-----|
A|-7~-----|
E|-5~-----|



Order:
Intro
Verse
Chorus
Verse
Chorus
Interlude
Chorus x2


===============================================================================
Добавлено: 01.01.2014
Другие материалы по этой песне:
  • Аккорды и текст

Страница создана 01.01.2014
http://primanota.ru/misc-unsigned-bands/saturday-night-at-the-apollo-here-with-me-chords.htm
Привет, Гость.
Предлагаем пройти революционный курс по гитаре.
Подарок от PrimaNota.Ru, забирай!