PrimaNota.ru - самый крупный в мире бесплатный архив песенных текстов, аккордов, табулатур и нот


Misc Unsigned Bands - Salfox - Timilai Maya - аккорды и текст

Регистрация Запомнить меня
Войти через:  Facebook Google Twitter Vk Yandex Mail.ru

Misc Unsigned Bands - Salfox - Timilai Maya - аккорды и текст

Печатать
Просмотров: 75
Уроки эстрадного вокала в Санкт-Петербурге
Salfox - Timilai Maya
Misc Unsigned Bands
Timilai Maya - SalFox

INTRO : G C G Dm G C G

E|----------------------------------------------------------------------------
B|----------------------------------------------------------------------------
G|-----------------------------0----------------------------------------------
D|------0----2---2-------0---0--------------0------0--------------------------
A|----2----3---3-------2---0------------2-0----2-0----2-0h2-0-----------------
E|--3----------------3---------------------------------------3----------------


E|----------------------------------------------------------------------------
B|----0---3--0---3--0h1-0-----------------------------------------------------
G|------2------2----------2-0-------------------------------------------------
D|----------------------------------------------------------------------------
A|----------------------------------------------------------------------------
E|----------------------------------------------------------------------------

G                  C  D             G    D    Em
Timro muhar mutu bata   nikalna sakina kina honi
             C    D                 G   D      Em  
timro tyo muskarn   samjhidai nai rahe raat bhari
       Am  D                    G
thahapaye     timlai maya gardachu


  C         D        Bm    E       Am      D           G
Sayad timro pahilo maya na hola ma tara timlai maya garchu   kasam cha
  C       D        Bm   Em        Am            D         G
Mero maya akashako tara jastai sadhainlai timro sath hune cha

E|----------------------------------------------------------------------------
B|----------------------------------------------------------------------------
G|-----------------------------0----------------------------------------------
D|------0----2---2-------0---0--------------0------0--------------------------
A|----2----3---3-------2---0------------2-0----2-0----2-0h20------------------
E|--3----------------3---------------------------------------3----------------


E|----------------------------------------------------------------------------
B|----0---3--0---3--0h1~0-----------------------------------------------------
G|------2------2----------2-0-------------------------------------------------
D|----------------------------------------------------------------------------
A|----------------------------------------------------------------------------
E|----------------------------------------------------------------------------


G               C  D                G     D    Em
Timi samu na hunda   yo mutu jhaskincha kina honi
          C    D             G   D      Em  
timro yaadma  tarpidai nai rahe raat bhari
       Am  D                    G
thahapaye     timlai maya gardachu


  C         D        Bm    E       Am      D           G
Sayad timro pahilo maya na hola ma tara timlai maya garchu   kasam cha
  C       D        Bm   Em        Am            D         G
Mero maya akashako tara jastai sadhainlai timro sath hune cha

  C         D        Bm    E       Am      D           G
Sayad timro pahilo maya na hola ma tara timlai maya garchu   kasam cha
  C       D        Bm   Em        Am            D         G
Mero maya akashako tara jastai sadhainlai timro sath hune cha


   Am            D         G    Em
sadhainlai timro sath hune cha
   Am            D         G    Em
sadhainlai timro sath hune cha
   Am            D         G    Em
sadhainlai timro sath hune cha...
Добавлено: 04.10.2015
Другие материалы по этой песне:
  • Аккорды и текст

Страница создана 04.10.2015
http://primanota.ru/misc-unsigned-bands/salfox-timilai-maya-chords.htm
Привет, Гость.
Предлагаем пройти революционный курс по гитаре.
Подарок от PrimaNota.Ru, забирай!