PrimaNota.ru - самый крупный в мире бесплатный архив песенных текстов, аккордов, табулатур и нот


Misc Unsigned Bands - Rubber Band Method - For Cali - таба

Регистрация Запомнить меня
Войти через:  Facebook Google Twitter Vk Yandex Mail.ru

Misc Unsigned Bands - Rubber Band Method - For Cali - таба

Печатать
Просмотров: 45
-------------------------------------------------------------------------------
                             FOR CALI - Rubber Band Method
-------------------------------------------------------------------------------
Tabbed by: Jason Bender (JBender23)
Email:bender.jase@gmail.com

This is a song I wrote, which can be listened to and downloaded at the following places 
the web:

http://www.myspace.com/rubberbandmethod
http://www.newgrounds.com/audio/listen/108424

Tuning: Standard (EADGBE)


Guitar 1: Twelve String Acoustic
Guitar 2: Electric Guitar with High Distortion


These are the chords that guitar one plays:

    B.......................A...........................E

e|--0-----------------------0---------------------------0--------------------|
B|--0-----------------------0---------------------------0--------------------|
G|--8-----------------------6---------------------------1--------------------|
D|--9-----------------------7---------------------------2--------------------|
A|--9-----------------------7---------------------------2--------------------|
E|--7-----------------------5---------------------------0--------------------|

Intro: B A E

B
No time spent waiting on a train
A
I'm gonna stand outside in that California rain
E
I'm gonna be free again.

B
I'm gonna leave right now and I'm never turning back
A
I'm gonna walk straight down that railroad track
E
Til I reach the sea

A
Did you wonder
E
Did you ever wonder
B
About me?

A
Did you wonder
E
Did you ever wonder
B
Was I free?


Solo/Bridge Part:

Guitar One plays this in the background of the solo:
e|---------------------------------------------------------------------------|
B|-------7---7--7--7---7------7---7---7---7---7-----7--7--7-----7--7--7------|
G|-------7---7--7--7---7------7---7---7---7---7-----7--7--7-----7--7--7------|
D|-----7h9---9--9--9---9----7h9---9---9---9---9---9p7--7--7-----7--7--7------|
A|---------------------------------------------------------------------------|
E|---------------------------------------------------------------------------|


Guitar 2:

e|---------------------------------------------------------------------------|
B|---------------------------------------------------------------------------|
G|--------------7----9---9b11b9p7~-------------------------------------------|
D|------7h9~~----------------------9-------9--7---------7-------7-7h9--------|
A|--------------------------------------------------7h9------7h9-------------|
E|---------------------------------------------------------------------------|


e|---------------------------------------------------------------------------|
B|---------------------------------------------------------------------------|
G|---7--9--9b11b9p7---9b11~~~11b9----7h9~~~-----7h9~~~~---9b11b9p7-----------|
D|------------------9--------------9-----------9---------------------9~~~----|
A|---------------------------------------------------------------------------|
E|---------------------------------------------------------------------------|


e|---------------------------------------------------------------------------|
B|-------------------10-----------------------------------10-----------------|
G|---------7-----9b11---11b9--7--9~~~~----7h9-9~~~---9b11----11b9p7----------|
D|----7h9-----9--------------------------------------------------------------|
A|---------------------------------------------------------------------------|
E|---------------------------------------------------------------------------|

Both Guitars:

e|---------------------------------------------------------------------------|
B|---------------------------------------------------------------------------|
G|---------------------------------------------------------------------------|
D|----7h9~~~~-----7--7h9~~~~~----7h9-----------------------------------------|
A|---------------------------------------------------------------------------|
E|---------------------------------------------------------------------------|


Then it goes back to the beginning, with just Guitar 1 playing:

B
No time spent waiting on a train
A
I'm gonna stand ouside in that California rain
E
I'm gonna be free again

A
Did you wonder
E
Did you ever wonder
B
About me?

A
Did you wonder
E
Did you ever wonder
B
Are we free?

| /  slide up
| \  slide down
| h  hammer-on
| p  pull-off
| ~  vibrato
| +  harmonic
| x  Mute note
===============================================================================


This is my first tab, and it's 100% correct. I know because I wrote and played all the 
in the song. I have other songs, that you can hear at the Myspace page I provided at the 
I will have tabs up for them later, but I'm way to tired right now.

Enjoy.
Добавлено: 04.08.2013
Другие материалы по этой песне:
  • Аккорды и текст

Страница создана 04.08.2013
http://primanota.ru/misc-unsigned-bands/rubber-band-method-for-cali-chords.htm
Привет, Гость.
Предлагаем пройти революционный курс по гитаре.
Подарок от PrimaNota.Ru, забирай!