PrimaNota.ru - самый крупный в мире бесплатный архив песенных текстов, аккордов, табулатур и нот


Misc Unsigned Bands - Rival Summers - All Yours - аккорды и текст, видео

Регистрация Запомнить меня
Войти через:  Facebook Google Twitter Vk Yandex Mail.ru

Misc Unsigned Bands - Rival Summers - All Yours - аккорды и текст, видео

Печатать
Просмотров: 64
Rival Summers - All Yours
Misc Unsigned Bands
RIVAL SUMMERS - ALL YOURS
---------------------------
Tuning: Half-step down, Capo on 2nd fret (OR Standard Tuning, Capo on 1st fret)


Intro:
            D           G           D           A           Bm        G
eb|---------x-----------x-----------x-----------x-----------x--------x--|
Bb|---------3-----------3-----------3-----------3-----------3--------3--|
Gb|---------2-----------2-----------2-----------2-----------x--------0--|
Db|-----0h2-0-------2p0-0-------0h2-0---4p0-2h4-2---4p0-----4-----0--0--|
Ab|-0h2-----0---0h2-----x---0h2-----0-----------0-------4p0-2---4----x--|
Eb|---------x-----------3-----------x-----------x-----------x--------3--|
         D           A       G  G
---------x-----------x-------x--x---|
---------3-----------3-------3--3---|
---------2-----------2-------0-h2---|
-----0h2-0---4p0-2h4-2---4-0-0--0---|
-0h2-----0-----------0-------0--0---|
---------x-----------x-------3--3---|

Verse:
    D   G   D   G 
eb|-x---x---x---x-|
Bb|-3---3---3---3-|
Gb|-2---0---2---0-|
Db|-0---0---0---0-|  X2
Ab|-0---x---0---x-|
Eb|-x---3---x---3-|

Pre-Chorus:
    A   G   A   G
eb|-x---x---x---x-|
Bb|-3---3---3---3-|
Gb|-2---0---2---0-|
Db|-2---0---2---0-|
Ab|-0---x---0---x-|
Eb|-x---3---x---3-|

Chorus:
    Bm  G   D   A
eb|-x---x---x---x-|
Bb|-3---3---3---3-|
Gb|-x---0---2---2-|
Db|-4---0---0---2-|  X2
Ab|-2---x---0---0-|
Eb|-x---3---x---x-|

Bridge:
   Bm   G   D   A
eb|-x---x---x---x-|
Bb|-3---3---3---3-|
Gb|-x---0---2---2-|
Db|-4---0---0---2-|  X2
Ab|-2---x---0---0-|
Eb|-x---3---x---x-|
  D   G   D   A   Bm  G   D   A
|-x---x---x---x---x---x---x---x-|
|-3---3---3---3---3---3---3---3-|
|-2---0---2---2---x---0---2---2-|
|-0---0---0---2---4---0---0---2-|
|-0---x---0---0---2---x---0---0-|
|-x---3---x---x---x---3---x---x-|
Добавлено: 18.11.2013
Другие материалы по этой песне:
  • Аккорды и текст

Страница создана 18.11.2013
http://primanota.ru/misc-unsigned-bands/rival-summers-all-yours-chords.htm
Привет, Гость.
Предлагаем пройти революционный курс по гитаре.
Подарок от PrimaNota.Ru, забирай!