PrimaNota.ru - самый крупный в мире бесплатный архив песенных текстов, аккордов, табулатур и нот


Misc Unsigned Bands - Riot On The Rooftops - Our Innocence Lost - таба

Регистрация Запомнить меня
Войти через:  Facebook Google Twitter Vk Yandex Mail.ru

Misc Unsigned Bands - Riot On The Rooftops - Our Innocence Lost - таба

Печатать
Просмотров: 40
1 guitar                  Tabbed by:Manny C.
standard tuning
main part


   INTRO               (main riff)
e---------------------------------------|
b---------------------------------------|
g-11-11-11-9-9-9-8-8-8------------------|
d----------------------9-9-9-8-8-8-9-9--| X3  before...
a---------------------------------------|
E---------------------------------------|
  == == == = = = = = = = = = = = = = =


   VERSE (figure out rhythm)
e------------------------------------------|
b------------------------------------------|
g------------------------------------------|  X4 then play
d-2~--222--4~--444--6~--666----------------| main riff,just don't
a-2~--222--4~--444--6~--666--2-2-4444444-2-|  palm mute
E-0~--000--2~--222--4~--444--0-0-2222222-0-|
                                 =======

     Chorus
e------------------------------------------------------------|
b------------------------------------------------------------|
g-----------------------/16-16-16-15-15-15-13-13-13-15-15-15-|
d-9-9-9-9-9-9-9-9-9-9-9--xx-xx-xx-xx-xx-xx-xx-xx-xx-xx-xx-xx-|
a-9-9-9-9-9-7-7-7-7-7-7-/14-14-14-13-13-13-11-11-11-13-13-13-|
E-7-7-7-7-7-0-0-0-0-0-0--------------------------------------|

    Chorus(continued)
e-------------------------------------------------------|
b-------------------------------------------------------|
g-4-4-4-4-4-4-4-4---------------------------------------|
d-4-4-4-4-4-4-4-4-2-2-2-2-2-2-9-9-9-9-9-9-9-9-9-9-9--6~-|
a-2-2-2-2-2-2-2-2-2-2-2-2-2-2-9-9-9-9-9-7-7-7-7-7-7--6~-|
E-----------------0-0-0-0-0-0-7-7-7-7-7-0-0-0-0-0-0--4~-|

 play verse then...

e------------------------------------------7----|
b-------------------------------4v-------/7-7---|
g---------4v---------6v-------------------------|
d-4-6-4-6----4-6-4-6----4-6-4-6----4-6-4--------|
a-----------------------------------------------|
E-----------------------------------------------|
  = = = =    = = = =    = = = =    = = =

then play higher octave of main riff which goes

e-------------------|
b-7-7-7-5-5-5-4-4-4-|
g-------------------|X2 then play chorus
d-------------------|
a-------------------|
E-------------------|


   SOLO(tapping)

e-19t7t5--12t7t5--19t7t5--12t7t5--15t7t5--15t7t5--15t6t5--15t6t5--12t6t5--|
b-------------------------------------------------------------------------|
g-------------------------------------------------------------------------|
d-------------------------------------------------------------------------|
a-------------------------------------------------------------------------|
E-------------------------------------------------------------------------|

e-17t9t7--17t9t7--19t12t11--11t19v-|
b----------------------------------|
g----------------------------------|
d----------------------------------| X2
a----------------------------------|
E----------------------------------|

e-------|
b-------|
g-------|
d-------|
a-------|
E-h7~p0-|

play chorus twice then

Outro Solo
  (4,6)
e--------------------7-7-7-7-7-7-7-9-7-9-7-9-7-9-7-9-7-9-7-9-|
b----------------4v/7-7-7-7-7-7-7-7-7-7-7-7-7-7-7-7-7-7-7-7--|
g----------4v------------------------------------------------|
d-464646464--4646--------------------------------------------|
a------------------------------------------------------------|
E------------------------------------------------------------|

play last two chord of chorus and your done

Legend:
v-virbrato
/-slide
=-palm mute
h-hammer on
p-pull off
t-tap
Добавлено: 04.12.2013
Другие материалы по этой песне:
  • Аккорды и текст

Страница создана 04.12.2013
http://primanota.ru/misc-unsigned-bands/riot-on-the-rooftops-our-innocence-lost-chords.htm
Привет, Гость.
Предлагаем пройти революционный курс по гитаре.
Подарок от PrimaNota.Ru, забирай!