PrimaNota.ru - самый крупный в мире бесплатный архив песенных текстов, аккордов, табулатур и нот


Misc Unsigned Bands - Reversed - Everythings Ruined - таба

Регистрация Запомнить меня
Войти через:  Facebook Google Twitter Vk Yandex Mail.ru

Misc Unsigned Bands - Reversed - Everythings Ruined - таба

Печатать
Просмотров: 43
----------------------------------------------------------------------------
                             Everything's Ruined - Reversed
----------------------------------------------------------------------------

Tabbed by: Jesse H. (Reversed's Frontman)
Email: None

Tuning: Standard

Intro

e|-------------------------------------|
B|---1-1-1-0-----------1-1-1-0---------|
G|-----------3-1-0-0-----------3-1-0~--|      x2
D|-------------------------------------|
A|-------------------------------------|
E|-------------------------------------|                
                                                            x2
e|---1-1-1-0-----------1-1-1-0---------|
B|-----------3-1-0-0-----------3-1-0~--|
G|-------------------------------------|      x2
D|-------------------------------------|
A|-------------------------------------|
E|-------------------------------------|

Verse 1

e|-----------------------------------------------|
B|-----------------------------------------------|
G|-----------------------------------------------|      x4
D|---3-3-3-3-----------------1-1-1-1-------------|
A|-----------3-3-3-3/4-4-4-4---------------------|
E|-----------------------------------------------|

e|---------------------------------------------|
B|---------------------------------------------|
G|---------------------------------------------|       x4
D|---9-9-9-9-4-4-4-4-5-5-5-5-7-7-7-7-----------|
A|---9-9-9-9-4-4-4-4-5-5-5-5-7-7-7-7-----------|
E|---7-7-7-7-2-2-2-2-3-3-3-3-5-5-5-5-----------|

Chorus

e|---------------------------------------------------------|
B|---2-2-2-2-1-1-1-1-1-1-1-1-------------------------------|
G|---2-2-2-2-2-2-2-2---------1-1-1-1-----------------------|   x8
D|---2-2-2-2-2-2-2-2-2-2-2-2-2-2-2-2-----------------------|
A|-------------------3-3-3-3-2-2-2-2-----------------------|
E|---------------------------------------------------------|

Verse 2

e|-------------------------------------------------------------|
B|-------------------------------------------------------------|
G|-------------------------------------------------------------|   x4
D|---3-3-3-3---------------------------------------------------|
A|-----------4-4-4-4/6-6-6p4\3-3-3-3---------------------------|
E|-------------------------------------------------------------|

e|------------------------------------------------------------|
B|------------------------------------------------------------|
G|------------------------------------------------------------|   x4
D|---9-9-9-9-5-5-5-5-7-7-7-7-4-4-4-4--------------------------|
A|---9-9-9-9-5-5-5-5-7-7-7-7-4-4-4-4--------------------------|
E|---7-7-7-7-3-3-3-3-5-5-5-5-2-2-2-2--------------------------|

CHORUS

Solo

e|--------------8b~-7-6-5-------------------------------------------|
B|---9b~-8-7-6--------------------------------------8\1/11-11b~-----|
G|------------------------10b~-9-8-7--------------------------------|
D|------------------------------------12b~-11-10-9------------------|
A|------------------------------------------------------------------|
E|------------------------------------------------------------------|

e|-----------------------------0~-----------------------|
B|-------------------------0-5--------------------------|
G|---------------------0-4------------------------------|
D|-----------------0-5----------------------------------|
A|-------------0-5--------------------pick slide--------|
E|---15\2-3h4-5-----------------------------------------|

CHORUS

Outro

e|-------------------------------------------------|
B|---1-1-1-1-1-1-1-1-1-1-1-1-1-1-1-1~--------------|
G|---2-2-2-2-2-2-2-2-2-2-2-2-2-2-2-2~--------------|
D|---2-2-2-2-2-2-2-2-2-2-2-2-2-2-2-2~--------------|
A|---------------------------------------------3b--|
E|-------------------------------------------------|


| /  slide up
| \  slide down
| h  hammer-on
| p  pull-off
| ~  let ring
| +  harmonic
| x  Mute note
| b Bend string
============================================================================
Добавлено: 14.02.2014
Другие материалы по этой песне:
  • Аккорды и текст

Страница создана 14.02.2014
http://primanota.ru/misc-unsigned-bands/reversed-everythings-ruined-chords.htm
Привет, Гость.
Предлагаем пройти революционный курс по гитаре.
Подарок от PrimaNota.Ru, забирай!