PrimaNota.ru - самый крупный в мире бесплатный архив песенных текстов, аккордов, табулатур и нот


Misc Unsigned Bands - Ren Xian Qi - Lang Hua Yi Duo Duo - аккорды и текст

Регистрация Запомнить меня
Войти через:  Facebook Google Twitter Vk Yandex Mail.ru

Misc Unsigned Bands - Ren Xian Qi - Lang Hua Yi Duo Duo - аккорды и текст

Печатать
Просмотров: 109
Ren Xian Qi - Lang Hua Yi Duo Duo
Misc Unsigned Bands
Chords used:
G 320003
Am x02210
Bm x24432
C x32010
D xx0232
Em 022000

(you may play "G D C" as intro)
la ... la ... la ...
la ... la ... la ...

Verse 1
G D C G
wo yao ni pei zhuo wo kan zhuo na hai gui shui zhong you
G D C G
man man de pa zai sha tan shang shu zhuo lang hua yi duo duo
C G C G
ni bu yao hai pa ni bu hui ji mo
Em Bm C G
wo hui yi zhi pei zai ni de zuo you rang ni le you you



Verse 2
Bm Em Bm Em
ri zi yi tian yi tian guo wo men hui man man chang da
Am D
wo bu guan ni dong bu dong wo zai chang shi me
Bm Em Bm Em
wo zhi dao you yi tian, ah ni, yi ding hui ai shang wo
Am C D
yin wei wo jue de wo zhen de hen bu cuo


Chorus
C G
shi guang cong cong cong cong liu zou ye ye ye bu hui tou
Am G
mei nv bian cheng lao tai po
C G
ai yo na na na na ge shi hou wo wo wo wo ye ye
Am G
yi jing shi ge zao lao tou
C G Am G
la la ~~~~ wo men yi qi shou qian shou
C G Am D G
la la ~~~ shu zhuo lang hua yi duo duo


Before ending...

E |--3---2---0-0---2---|--3---2---0-|--7---5---3-3/5---|--7---5---3-|
B |--0---3---1-1---3---|--0---3---1-|--8---7---5-5/7---|--8---7---5-|
G |--0-0-2-2-0-0-0-2-0-|--0-0-2-2-0-|--7-7-7-7-5-5/7-7-|--7-7-7-7-5-|
D |------0-------------|------0-----|--5---5-----------|--5---5-----|
A |----------3-3---0---|----------3-|------------------|------------|
E |--3-----------------|--3---------|------------------|------------|

Transition Tab Between Verse 1 and 2
1st:
E |------10p-8--8--7--8--8/10-|
B |---------------------------|
G |--5/7----------------------|
D |---------------------------|
A |---------------------------|
E |---------------------------|

2nd:
E |------------------|
B |------------------|
G |------------------|
D |------5-----------|
A |--5h7---7-5-------|
E |------------7h8-7-|
Добавлено: 06.09.2013
Другие материалы по этой песне:
  • Аккорды и текст

Страница создана 06.09.2013
http://primanota.ru/misc-unsigned-bands/ren-xian-qi-lang-hua-yi-duo-duo-chords.htm
Привет, Гость.
Предлагаем пройти революционный курс по гитаре.
Подарок от PrimaNota.Ru, забирай!