PrimaNota.ru - самый крупный в мире бесплатный архив песенных текстов, аккордов, табулатур и нот


Misc Unsigned Bands - Religion Of Blood - Religion Of Blood - таба

Регистрация Запомнить меня
Войти через:  Facebook Google Twitter Vk Yandex Mail.ru

Misc Unsigned Bands - Religion Of Blood - Religion Of Blood - таба

Печатать
Просмотров: 37
 
 !"____________"!
 !|            |!  
 !|THIS IS ONLY|!
 !|DEMO-VERSIO |!
 !|____________|!
 !"            "!

~ = vibrato
/ = slide down
\ = slide up
h = hold-on
p = pull-off
x = press slightly 1st fret 

Guitar:

Intro
|----------------11-10p8------------------11-10p8-|
|-7-10---10-11-8-----------7-10---10-11-8---------|
|------7------------------------7-----------------|
|-------------------------------------------------| ------------------|
|-------------------------------------------------|                   |
|-------------------------------------------------|                   |
                                                                      |-->x2
|-------------------14-13p11--------------------14-13p11-|            |
|-10-13----13-14-11-----------10-13----13-14-11----------|            |
|-------10--------------------------10-------------------|------------|
|--------------------------------------------------------|
|--------------------------------------------------------|
|--------------------------------------------------------|

|---------------------------------------------|
|-h15p14p12-h15p14p12-h15p14p12-h15p14p12-----|
|-----------------------------------------14~-|
|---------------------------------------------|
|---------------------------------------------|
|---------------------------------------------|


Riff[1]
|--------------------------------------------|
|--------------------------------------------|
|--------------------------------------------|
|--------------------------------------------|
|-----3---4------3---7------3---4------3---7-|
|-000-3-0-2--000-3-0-5--000-3-0-2--000-3-0-5-|


Riff[2] x2
|-------------------------------------------------------------------------------|
|-------------------------------------------------------------------------------|
|-------------------------------------------------------------------------------|
|-------------------------------------------------------------------------------|
|-----------------------------------------------------------------------------3-|
|-00000-3/2-00000-3\5-00000-3/2-00000-3\5-00000-3/2-00000-3\5-00000-3/2-00000-3-|


Riff[1]
|-----------------------------------------|
|-----------------------------------------|
|-----------------------------------------|
|-----------------------------------------|
|-----3---4-----3---7-----3---4-----3---7-|
|-000-3-0-2-000-3-0-5-000-3-0-2-000-3-0-5-|


Riff[2] x2
|-------------------------------------------------------------------------------|
|-------------------------------------------------------------------------------|
|-------------------------------------------------------------------------------|
|-------------------------------------------------------------------------------|
|-----------------------------------------------------------------------------3-|
|-00000-3/2-00000-3\5-00000-3/2-00000-3\5-00000-3/2-00000-3\5-00000-3/2-00000-3-|


Riff[1]
|-----------------------------------------|
|-----------------------------------------|
|-----------------------------------------|
|-----------------------------------------|
|-----3---4-----3---7-----3---4-----3---7-|
|-000-3-0-2-000-3-0-5-000-3-0-2-000-3-0-5-|

Riff[3] 
|-------------------------------------------------------------------------|
|-------------------------------------------------------------------------|
|-------------------------------------------------------------------------|
|-------------------------------------------------------------------------|
|-----3---9---8--------3---9---8--------3---9---8--------3---9---8--7-5-4-|
|-000-3-0-7-0-6----000-3-0-7-0-6----000-3-0-7-0-6----000-3-0-7-0-6--5-3-2-|

Riff[4] x6
|------------------------------|
|------------------------------|
|------------------------------|
|------------------------------|
|--------2-------4-----5-----6-|
|-x--x-x-0---xxx-2-xxx-3-xxx-4-|


Riff[2] x2
|-------------------------------------------------------------------------------|
|-------------------------------------------------------------------------------|
|-------------------------------------------------------------------------------|
|-------------------------------------------------------------------------------|
|-----------------------------------------------------------------------------3-|
|-00000-3/2-00000-3\5-00000-3/2-00000-3\5-00000-3/2-00000-3\5-00000-3/2-00000-3-|


Riff[4] x4
|------------------------------|
|------------------------------|
|------------------------------|
|------------------------------|
|--------2-------4-----5-----6-|
|-x--x-x-0---xxx-2-xxx-3-xxx-4-|


Riff[2] x2
|-------------------------------------------------------------------------------|
|-------------------------------------------------------------------------------|
|-------------------------------------------------------------------------------|
|-------------------------------------------------------------------------------|
|-----------------------------------------------------------------------------3-|
|-00000-3/2-00000-3\5-00000-3/2-00000-3\5-00000-3/2-00000-3\5-00000-3/2-00000-3-|

_________________________________________________________________________________


Bass:

Riff[1]
|--------------------------------------------|
|--------------------------------------------|
|-----3-0-2--0-0-3-0-5------3-0-2--0-0-3-0-5-|
|-0-0-------------------0-0------------------|


Riff[2] x2
|-------------------------------------------------------------|
|-------------------------------------------------------------|
|-----3-2-0-0-3-5-----3-2-0-0-3-5-----3-2-0-0-3-5-----3-2-0-3-|
|-0-0-------------0-0-------------0-0-------------0-0---------|


Riff[3] x3
|------------------------------|
|-----------------3-5-6-----0--|
|-----3-0-7-0-6-5-------2-3----|
|-0-0--------------------------|


Riff[4]
|--------------------------------|
|--------------------------------|
|---5-4----5-4-2----5-4----5-4-2-|
|-3------3--------3------3-------|

|--------------------------------|
|---5-4----5-4-2----5-4----5-4-2-|
|-3------3--------3------3-------|
|--------------------------------|

|--------------------------------|
|--------------------------------|
|---5-4----5-4-2----5-4----5-4-2-|
|-3------3--------3------3-------|


Riff[2] x2
|-------------------------------------------------------------|
|-------------------------------------------------------------|
|-----3-2-0-0-3-5-----3-2-0-0-3-5-----3-2-0-0-3-5-----3-2-0-3-|
|-0-0-------------0-0-------------0-0-------------0-0---------|


Riff[4]
|--------------------------------|
|--------------------------------|
|---5-4----5-4-2----5-4----5-4-2-|
|-3------3--------3------3-------|

|--------------------------------|
|---5-4----5-4-2----5-4----5-4-2-|
|-3------3--------3------3-------|
|--------------------------------|

|--------------------------------|
|--------------------------------|
|---5-4----5-4-2----5-4----5-4-2-|
|-3------3--------3------3-------|


Riff[2] x2
|-------------------------------------------------------------|
|-------------------------------------------------------------|
|-----3-2-0-0-3-5-----3-2-0-0-3-5-----3-2-0-0-3-5-----3-2-0-3-|
|-0-0-------------0-0-------------0-0-------------0-0---------|



I try to figure out something more... sometime.
Добавлено: 19.12.2013
Другие материалы по этой песне:
  • Аккорды и текст

Страница создана 19.12.2013
http://primanota.ru/misc-unsigned-bands/religion-of-blood-religion-of-blood-chords.htm
Привет, Гость.
Предлагаем пройти революционный курс по гитаре.
Подарок от PrimaNota.Ru, забирай!