PrimaNota.ru - самый крупный в мире бесплатный архив песенных текстов, аккордов, табулатур и нот


Misc Unsigned Bands - Ran - Pandangan Pertama - таба, видео

Регистрация Запомнить меня
Войти через:  Facebook Google Twitter Vk Yandex Mail.ru

Misc Unsigned Bands - Ran - Pandangan Pertama - таба, видео

Печатать
Просмотров: 36
INtro:


|-------------|-------------|-------------|-------------|-------------|
|--3h5-3h5----|--3h5--3h5---|--3h5--------|-------------|-------------|
|-------------|-------------|-------5-5-5-|-5-5---------|-------------|6x
|-------------|-------------|-------------|-------------|-------------|
|-------------|-------------|-------------|-------------|-------------|
|-------------|-------------|-------------|-------------|-------------|

"Lama Ku memendam..."
|-------------|-------------|-------------|-------------|-------------|
|--3h5-3h5----|--3h5--3h5---|--3h5--------|-------------|-------------|
|-------------|-------------|-------5-5-5-|-5-5---------|-------------|
|-------------|-------------|-------------|-------------|-------------|
|-------------|-------------|-------------|-------------|-------------|
|-------------|-------------|-------------|-------------|-------------|

"Dan andai suatu hari..."
|--3---3------|--3----3-----|--3----0--0--|0--0--0------|-------------|
|--3---3------|--3----3-----|--3----1--1--|1--1--1------|-------------|
|-------------|-------------|-------------|-------------|-------------|
|-------------|-------------|-------------|-------------|-------------|
|-------------|-------------|-------------|-------------|-------------|
|-------------|-------------|-------------|-------------|-------------|

"Menunggu... Dirimu.."
|-0-----------|-3-----------|-------------|-------------|-------------|
|-1-----------|-0-----------|-------------|-------------|-------------|
|-2-----------|-0-----------|-------------|-------------|-------------|
|-3-----------|-0-----------|-------------|-------------|-------------|
|-------------|-------------|-------------|-------------|-------------|
|-------------|-------------|-------------|-------------|-------------|

"Kurasa ku tlah Jatuh cinta..."
|--0--0--x--0-|--2--2--x--0-|--3--3--x--3-|--3--3--x--0-|--0--0--x--0-|
|--0--0--x--0-|--3--3--x--0-|--1--1--x--1-|--3--3--x--1-|--1--1--x--1-|
|--0--0--x--0-|--4--4--x--0-|--2--2--x--2-|--3--3--x--0-|--2--2--x--2-|
|--2--2--x--2-|--4--4--x--2-|--2--2--x--2-|--5--5--x--2-|--3--3--x--3-|
|-------------|-------------|-------------|-------------|-------------|
|-------------|-------------|-------------|-------------|-------------|

|--0--0--x--0-|--1--1--x--1-|--3--3--x--3-|-------------|-------------|
|--0--0--x--0-|--1--1--x--1-|--0--0--x--0-|-------------|-------------|
|--0--0--x--0-|--2--2--x--2-|--0--0--x--0-|-------------|-------------|
|--0--0--x--0-|--0--0--x--0-|--0--0--x--0-|-------------|-------------|
|-------------|-------------|-------------|-------------|-------------|
|-------------|-------------|-------------|-------------|-------------|

"Dan bila kita bersama...."
|--0--0--x--0-|--0--0--x--0-|--1--1--x--1-|--0--0--x--0-|-------------|
|--1--1--x--1-|--0--0--x--0-|--1--1--x--1-|--1--1--x--1-|-------------|
|--2--2--x--2-|--0--0--x--0-|--2--2--x--2-|--0--0--x--0-|-------------|2x
|--3--3--x--3-|--0--0--x--0-|--0--0--x--0-|--2--2--x--2-|-------------|
|-------------|-------------|-------------|-------------|-------------|
|-------------|-------------|-------------|-------------|-------------|


"summertime..."
|--0--0--x--0-|--2--2--x--0-|--3--3--x--3-|--3--3--x--0-|--0--0--x--0-|
|--0--0--x--0-|--3--3--x--0-|--1--1--x--1-|--3--3--x--1-|--1--1--x--1-|
|--0--0--x--0-|--4--4--x--0-|--2--2--x--2-|--3--3--x--0-|--2--2--x--2-|
|--2--2--x--2-|--4--4--x--2-|--2--2--x--2-|--5--5--x--2-|--3--3--x--3-|
|-------------|-------------|-------------|-------------|-------------|
|-------------|-------------|-------------|-------------|-------------|

|--0--0--x--0-|--1--1--x--1-|--3--3--x--3-|-------------|-------------|
|--0--0--x--0-|--1--1--x--1-|--0--0--x--0-|-------------|-------------|
|--0--0--x--0-|--2--2--x--2-|--0--0--x--0-|-------------|-------------|
|--0--0--x--0-|--0--0--x--0-|--0--0--x--0-|-------------|-------------|
|-------------|-------------|-------------|-------------|-------------|
|-------------|-------------|-------------|-------------|-------------|

solo guitar

|-------------|-------------|-------------|-------------|---------------|
|--11-11h12-11|--8--8--5--5-|----5--8-5---|---------8-8-|-10-10-8-------|
|-------------|-------------|--5--------5-|5----7-9-----|--------9------|
|-------------|-------------|-------------|---10--------|----------10---|
|-------------|-------------|-------------|-------------|---------------|
|-------------|-------------|-------------|-------------|---------------|
------------------------------------------------------------------------|

|-------------|---------------------------------------------------------|
|-------------|---------------------------------------------------------|
|------7h9----|---------------------------------------------------------|
|---10--------|---------------------------------------------------------|4x
|-------------|---------------------------------------------------------|
|-------------|---------------------------------------------------------|

im still 12 years old, so im sorry if there are some mistakes here. but i think its 
well, enjoy it!
Добавлено: 23.09.2013
Другие материалы по этой песне:
  • Аккорды и текст

Страница создана 23.09.2013
http://primanota.ru/misc-unsigned-bands/ran-pandangan-pertama-chords.htm
Привет, Гость.
Предлагаем пройти революционный курс по гитаре.
Подарок от PrimaNota.Ru, забирай!