PrimaNota.ru - самый крупный в мире бесплатный архив песенных текстов, аккордов, табулатур и нот


Misc Unsigned Bands - Raging Frequency - Summertime - таба

Регистрация Запомнить меня
Войти через:  Facebook Google Twitter Vk Yandex Mail.ru

Misc Unsigned Bands - Raging Frequency - Summertime - таба

Печатать
Просмотров: 41
Summertime

--------------------------------------------------|
-------------14----------------------9------------|
---------15------15--------------10----10---------|
-----15------------15---------10----------10------|
--13-----------------13-----8------------------8--|

-------------------------------------------|
------------4--------------------7---------|
---------5-----5--------------8----8-------|
------5---------5----------8----------8----|
--3---------------3-----6---------------6--|

Repeat through verses and bridge


Verse 1: We
Добавлено: 11.12.2013
Другие материалы по этой песне:
  • Аккорды и текст

Страница создана 11.12.2013
http://primanota.ru/misc-unsigned-bands/raging-frequency-summertime-chords.htm
Привет, Гость.
Предлагаем пройти революционный курс по гитаре.
Подарок от PrimaNota.Ru, забирай!